Oops, an error
Loading. Please wait.

Treasure Bass Tab

version 4
version 4

Whole song

Interactive

37 views 27 this week
no commentswrite comment
1 2 3 4 5
2 more votes to show rating
add to favorites
launch autoscroll
font size
0
reset
guitar tuner
Autoscroll
slow
fast
+/-
esc
set tempo
stop
Help us to improve Ultimate-Guitar.com Take our survey!
×
Author
Difficulty
novice
About this tab version
This version is more detailed and easy to learn. Was this info helpful? Yes No
Song: Treasure
Artist: Bruno Mars
Album: Unorthodox Jukebox


[Intro]
G|-----------------------------------------------------|
D|-----------------------------------------------------|
A|-----------------------------------------------------|
E|-0h6-6-6-6-6-6-6-6\----------------------------------|
     
Verses and Chorus
     P       P P       P       P  P
G|-----------------------------------------------------|
D|---6-------3-3-------5-------10-10-------------------|
A|---------------------------------------6-------------|
E|-4---4-3-1-----1-1-3---3-6-8-------6h8---8-6---------|

[Pre-Chorus]
G|-----------------------------------------------------|
D|-----------------------------------------------------|
A|-----------------------------------------------------|
E|-1/6-6-6-6/18-18-18-18-18-18-18\---------------------|

[Post-Chorus]
G|-----------------------------------------------------|
D|-----------------------------------------------------|
A|-----------------------------------------------------|
E|-1/6~----/18-18--18-18--18-18--18-18-18\-------------|


Song Structure:
- Intro 1x
- Verse 2x
- Pre-chorus 1x
- Chorus 2x
- Post-chorus 1x
- Verse 2x
- Pre-chorus 1x
- Chorus 2x
- Pre-chorus 1x
- Post-chorus 1x
- Chorus 2x
- Pre-chorus 1x
- Verse

**********************************

Notes:
h - hammer-on
P - Pop
/ - slide up
\ - slide down
~ - let ring

**********************************
Suggest correction
Give kudos to tab author, rate the tab!
1 2 3 4 5
comments
print report bad tab
guest
You may want to rate the tab now too:
select rating
Wanna post a correction for this tab? Suggest correction