Oops, an error
Loading. Please wait.

Versace On The Floor Acoustic tab

version 2
version 2

Whole song

  • It is accurate and really it can help beginners to play this song greatly.
  • Fingerstyle arrangement for Versace On the Floor by Bruno Mars.

Video

1,747 views 153 this week
no commentswrite comment
1 2 3 4 5
x 3
add to favorites
×
Save as Personal and add changes to this tab that will be seen only by you. Learn more ›
×
You can save this tab as Personal to edit and correct it or add notes. All changes will be seen only by you. Learn more »
launch autoscroll
font size
0
reset
how to read this tab
guitar tuner
edit
Autoscroll
slow
fast
+/-
esc
set tempo
stop
About this tab version
Fingerstyle arrangement for Versace On the Floor by Bruno Mars. Was this info helpful? Yes No
Versace on the Floor - Bruno Mars 
fingerstyle arrangement; https://www.youtube.com/watch?v=PpsBv1_oSbY
https://www.youtube.com/watch?v=d2UZlwTDGbY

[Verse 1]
       Let's take our time tonight, girl..  Above us all the stars are watchin'
e|--0---3/5--3--2--0-------------|--0h2-----------2--|-----0--2--3-2--------0--2--|
B|--3----------------------------|-------------3-----|--3-------------0--3-----3--|
G|--2-----------------------2-2--|----------0--------|-------------------------2--|
D|-------------------------------|-------------------|-------------------------0--|
A|-----------------------0-------|-------------------|-------------------0--------|
E|--------------------2----------|-------3-----------|--------3-------------------|

  There's no place I'd rather be in this world.. Your eyes are where I'm lost in
e|--3/5--3--2--0-------------|--0h2-----------2--|-----0--2--3-2--------0--|
B|---------------------------|-------------3-----|--3-------------0--3-----|
G|----------------------2-2--|----------0--------|-------------------------|
D|---------------------------|-------------------|-------------------------|
A|-------------------0-------|-------------------|-------------------0-----|
E|----------------2----------|-------3-----------|--------3----------------|

          Underneath the chandelier..           We're dancin' all alone..                      
e|--5----5--5--5---5-5/7--|-------5-----|-------------------|----------0--0h2--|
B|-----5------------------|----0-----7--|--7-7--------8--5--|--3---------------|
G|------------------------|-------------|-------------------|----3-------------|
D|------------------------|-------------|----------5--------|------------------|
A|------------------------|-------------|-------0-----------|------------------|
E|--5-------5-------------|--7----------|-------------------|-------3----------|

    There's no reason to hide What we're feelin' inside Right now
e|--------0--2--3--5---------|----0--2--3--5----------|--0h2-0--|
B|-----3-------------3-------|--3-------------3-------|---------|
G|---------------------------|------------------------|---------|
D|---------------------------|------------------------|---------|
A|---------------------------|------------------------|---------|
E|----------0--------0-------|-------0--------0-------|---------|

[Pre-Chorus]
e|-------------0--2p0----|---------------|
B|--------3-----------3--|--2------3-2---|
G|------2---2------------|-------2-------|
D|----2------------------|-----2---------|
A|--0--------------------|--0------------|
E|-----------------------|---------------|

So, baby, let's just turn down the lights And close the door 
                                                Oooh I love that dress But you won't need it anymore                                                                                              
e|--------0--2-3------5--5----2--5--|--5-----------7--|-------------------|---------------------------|
B|-----3----------------------------|-----7-----------|--0-0-0-0-------0--|--1--3---0-----0-----------|
G|----------------------------------|-----------------|--0-0-0-0--2-2-----|------------2---------0----|
D|----------------------------------|-----------------|-------------------|-------------------0----0--|
A|----------------------------------|-----------------|-------------------|---------------------------|
E|--------------------3----------3--|--5--------------|--3----------------|--0------3-------3---------|
No, you won't need it no more  Let's just kiss 'til we're naked, baby
e|----------0--3/5--3--2--0--|--3/5--3-----2--0-----0--2---------|
B|----3-3--------------------|-------------------3--------3------|
G|---------------------------|--------------------------------4--|
D|---------------------------|-----------------------------------|
A|---------------------------|----------------------------0------|
E|------------0-----------2--|-------------3--------3------------|

[Chorus]
Versace on the floor
e|-----0h2----------|
B|-------------3-3--|
G|--4-------4-------|
D|------------------|
A|------------------|
E|------------------|

Oooh take it off for me, for me, for me, for me now, girl
e|--------------|--3/5-----5-----5--|--2-2--5-5-----3-3-----|--2-2--0-0---------0--|
B|----3-----3---|-------------------|-----------------------|----------------3-----|
G|----2-----2---|-------------------|-----------------------|----------------------|
D|--0----x------|-------------x-----|--------------------x--|------------x---------| 
A|-------x------|-------------x-----|--------------------x--|------------x---------|
E|-------x------|-------3-----x-----|------------0-------x--|------------x---------|

Versace on the floor
e|-----0h2--0-------|
B|-------------3-3--|
G|--2---------------|
D|------------------|
A|------------------|
E|------------------|

Oooh take it off for me, for me, for me, for me now, girl
e|--------------|--3/5-----5-----5--|--2-2--5-5-----3-3-----|--2-2--0-0---------0--|
B|----3-----3---|-------------------|-----------------------|----------------3-----|
G|----2-----2---|-------------------|-----------------------|----------------------|
D|--0----x------|-------------x-----|--------------------x--|------------x---------| 
A|-------x------|-------------x-----|--------------------x--|------------x---------|
E|-------x------|-------3-----x-----|------------0-------x--|------------x---------|


**************

| / Slide up
| h Hammer on
| x Slap

**************
Suggest correction
Creating personal tab
Creating personal tab
You can edit any tab online and save it as your Personal.

You can edit, replace or remove any tab part or add personal notes – all changes will be seen only by you.

Personal tabs can be accessed anytime from any device, even offline.
Learn more »
Give kudos to tab author, rate the tab!
1 2 3 4 5
comments
print report bad tab
guest
You may want to rate the tab now too:
select rating
Wanna post a correction for this tab? Suggest correction