Oops, an error
Loading. Please wait.

Time Tab

version 1
version 1

Whole song

294 views 1 this week
2 commentsread comments
1 2 3 4 5
2 more votes to show rating
add to favorites
launch autoscroll
font size
0
reset
how to read this tab
guitar tuner
Autoscroll
slow
fast
+/-
esc
set tempo
stop
Help us to improve Ultimate-Guitar.com Take our survey!
×
Author
Difficulty
advanced
C# F# B E G# C#


-----------------------------------------------------|
-----------------------------------------------------|
-----------------------------------------------------|
--------333222--------555888--------333222-78-56-----|
-------------------------------------------56-34-----|
-000111--------000111--------000111------------------|

--------------------------------------------|
--------------------------------------------|
-------------------------12-11--------------|
----4----------4--11-10--10-9--10-9---------|
-2--2-3--6565--2--9--8---------8--7-9-------|
-0----1--4343-----------------------7-------|

---------------------------------------------|
---------------------------------------------|
--------------------------12---8-9-----------|
----4-----------4--11-10--10-9-6-7-----------|
-2--2-3--65-65--2--9--8------7---------------|
-0----1--43-43-------------------------------|

----------------------------------|
----------------------------------|
---------9----------12------------|
---------7\---------10\-----------|
----------------------------------|
-0-0-000----0-0-000---------------|


-------------------------------------------------|
-------------------------------------------------|
-------------------------------------------------|
-----11---------3-------------3-------------6----|
-----9------5---1---3/4/5-----1---3/4/5-----4----|
-0-0----0-0-3-0---0-1/2/3-0-0---0-1/2/3-0-0------|
Suggest correction
Give kudos to tab author, rate the tab!
1 2 3 4 5
comments
print report bad tab
2 comments total.
0 reply
ryder99 152 Aug 30, 2014 03:40 AM

what this? it's wrong

0 reply
ryder99 152 Aug 30, 2014 03:41 AM

Clearly wrong.

guest
You may want to rate the tab now too:
select rating
Wanna post a correction for this tab? Suggest correction