Oops, an error
Loading. Please wait.

Pieces tab

by Bry
1,300 views 15 this week
no commentswrite comment
1 2 3 4 5
x 11
add to favorites
×
Save as Personal and add changes to this tab that will be seen only by you. Learn more ›
×
You can save this tab as Personal to edit and correct it or add notes. All changes will be seen only by you. Learn more »
launch autoscroll
font size
0
reset
how to read this tab
guitar tuner
edit
Autoscroll
slow
fast
+/-
esc
set tempo
stop
Pretty legit, did this by ear. Pretty old song but I love it!

Standard Tuning - Capo 2.


[Intro/Verse 1]

e|---------------------------------------------------------------------------|
B|--------0-------0-------8-------0-------0-------3-------0-------0----------|
G|--------0-------0-------0-------0-------0-------0-------0-------0----------|
D|---------------------------------------------------------------------------|
A|----5-------5-------7-------7-------3-------3-------3-------3--------------|
E|---------------------------------------------------------------------------|


[Chorus]

e|---------------------------------------------------------------------------|
B|--------0-------0-------0-------0-------0-------0-------0-------0----------|
G|--------0-------0-------0-------0-------0-------0-------0-------0----------|
D|---------------------------------------------------------------------------|
A|---------------------------------------------------------------------------|
E|----3-------3-------3-------3-------1-------1-------1-------1--------------|

e|---------------------------------------------------------------------------|
B|--------0-------0-------0-------0-------1-------1-------1-------1----------|
G|--------0-------0-------0-------0-------0-------0-------0-------0----------|
D|---------------------------------------------------------------------------|
A|------------------------------------3-------3-------3-------3--------------|
E|----0-------0-------0-------0----------------------------------------------|


[Lyrics]


[Intro/Verse 1]

Last night I slept alone
And the bed felt so big that I got lost
And no one heard my cry
I woke up hugging air

My father walked in thinking his son, was still in love with life


[Chorus]

'Cause no one knows I'm in pieces
I've enough weaknesses without a broken heart
But I can't lie around
'Cause self pity is just bound to get me nowhere
And that's not where I'll find you


[Verse 2]

Tonight I'll feel assured
In the company of friends and I'll proclaim:
"Who needs love anyway?"
But I'll wake up in a war
In a trench that's so deep, so terrifying
Only love can save the day


[Chorus]

'Cause no one knows I'm in pieces
I've enough weaknesses without a broken heart
But I can't lie around
'Cause self pity is just bound to get me nowhere
And that's not where I'll find you

            
            
Suggest correction
Creating personal tab
Creating personal tab
You can edit any tab online and save it as your Personal.

You can edit, replace or remove any tab part or add personal notes – all changes will be seen only by you.

Personal tabs can be accessed anytime from any device, even offline.
Learn more »
comments
print report bad tab
guest
You may want to rate the tab now too:
select rating
Wanna post a correction for this tab? Suggest correction