Oops, an error
Loading. Please wait.

Undertaker tab

259 views 3 this week
no commentswrite comment
1 2 3 4 5
3 more votes to show rating
add to favorites
×
Save as Personal and add changes to this tab that will be seen only by you. Learn more ›
×
You can save this tab as Personal to edit and correct it or add notes. All changes will be seen only by you. Learn more »
launch autoscroll
font size
0
reset
how to read this tab
guitar tuner
edit
Autoscroll
slow
fast
+/-
esc
set tempo
stop
Undertaker by Bry Webb, from the album Provider
Tabbed by: Francis M Labrecque
Email: francis.m.labrecque@gmail.com
Tuning: standard, no capo

I haven't found any tabs or chords for Webb's solo records, so this might just be the first.

This is a fantastic song from Bry Webb, singer, lyricist and guitar player for the Constantines. 
It's fairly easy to play. Here's the picking pattern.


[Verse]
 
* Most of the times, the fourth chord of each line is played either very very soft or omitted.

    D            
        
e|---2-------------2-------------2-------------2-----------------|
B|---------0h3-----------0h3-----------0h3-----------0h3---------|
G|------2-------------2-------------2-------------2--------------|
D|---0-------------0-------------0-------------0-----------------|
A|---------------------------------------------------------------|
E|---------------------------------------------------------------|
     
     Em(add9)

e|---------------------------------------------------------------|
B|---7-------------7-------------7-------------7-----------------|
G|---------0h4-----------0h4-----------0h4-----------0h4---------|
D|------5-------------5-------------5-------------5--------------|
A|---------------------------------------------------------------|
E|---0-------------0-------------0-------------0-----------------|

     Bm

e|---------------------------------------------------------------|
B|---3-------------3-------------3-------------3-----------------|
G|---------2h4-----------2h4-----------2h4-----------2h4---------|
D|------4-------------4-------------4-------------4--------------|
A|---2-------------2-------------2-------------2-----------------|
E|---------------------------------------------------------------|

     A

e|---------0-------------0-------------0-------------0-----------|
B|---2-------------2-------------2-------------2-----------------|
G|---------------------------------------------------------------|
D|------2-----2-------2-----2-------2-------------2-----2--------|
A|---0-------------0-------------0-------------0-----------------|
E|---------------------------------------------------------------|

     Dsus4

e|---------------------------------------------------------------|
B|---3-------------3-------------3-------------3-----------------|
G|---------0h2-----------0h2-----------0h2-----------0h2---------|
D|------0-------0-----0------0------0-------0-----0-------0------|
A|---------------------------------------------------------------|
E|---3-------------3-------------3-------------3-----------------|


     D                           A
        
e|---2-------------2-------------------0-------------0-----------|
B|---------0h3-----------0h3-----2-------------2-----------------|
G|------2-------------2------------------------------------------|
D|---0-------------0----------------2-----2-------2-----2--------|
A|-------------------------------0-------------0-----------------|
E|---------------------------------------------------------------|
  

[Chorus]

     F#maj7                      G6

e|---------0-------------0-------------0-------------0-----------|
B|---2-------------2-------------3-------------3-----------------|
G|------3-----3-------3-----3-------4-----4-------4-----4--------|
D|---------------------------------------------------------------|
A|---------------------------------------------------------------|
E|---2-------------2-------------3-------------3-----------------|


     D                           A
        
e|---2-------------2-------------------0-------------0-----------|
B|---------0h3-----------0h3-----2-------------2-----------------|
G|------2-------------2------------------------------------------|
D|---0-------------0----------------2-----2-------2-----2--------|
A|-------------------------------0-------------0-----------------|
E|---------------------------------------------------------------|




[Intro] D


[Verse]

D                Em(add9)
I love this town

           Bm
Like hunter
                A
Was in this town

                 Dsus4
I'm the undertaker

                      D
I am known by everyone

                 Em(add9)
Whether debutante

               Bm
Or bone shaker

             A
Husband, wife

                Dsus4
Or heart breaker

                     D        A
I am known by everyone


[Chorus]

F#maj7              G6        D      A
I will be standin' by

F#maj7              G6        D      A
I will be standin' by


[Verse]

D                Em(add9)

I went to school
                              
                            Bm
With charlatans and raconteurs

                  A
But all my enemies

               Dsus4
Come back to me

                       D
Call me an entrepreneur

                Em(add9)
Whether debutante

            Bm
Or law maker

               A
Whether scavenger

            Dsus4
Or caretaker

   D              A
I am known by everyone


[Chorus]

F#maj7              G6     D     A
I will be standin' by

F#maj7              G6     D     A
I will be standin' by

F#maj7              G6     D     A
I will be standin' by

F#maj7              G6     D     A
I will be standin' by



************************************

| h  Hammer-on

************************************

            
            
Suggest correction
Creating personal tab
Creating personal tab
You can edit any tab online and save it as your Personal.

You can edit, replace or remove any tab part or add personal notes – all changes will be seen only by you.

Personal tabs can be accessed anytime from any device, even offline.
Learn more »
Give kudos to tab author, rate the tab!
1 2 3 4 5
comments
print report bad tab
guest
You may want to rate the tab now too:
select rating
Wanna post a correction for this tab? Suggest correction