Oops, an error
Loading. Please wait.

Dont Leave Me Lonely tab

689 views 3 this week
no commentswrite comment
1 2 3 4 5
2 more votes to show rating
add to favorites
×
Save as Personal and add changes to this tab that will be seen only by you. Learn more ›
×
You can save this tab as Personal to edit and correct it or add notes. All changes will be seen only by you. Learn more »
launch autoscroll
font size
0
reset
how to read this tab
guitar tuner
edit
Autoscroll
slow
fast
+/-
esc
set tempo
stop
Author
Difficulty
Don't Leave Me Lonely
Bryan Adams

Legend

~ = vibrato or held note
x = percussive note with no pitch; muted note
h = hammer on
p = pull off
s = slide
b = bend string up to indicated pitch/fret
r = release bend to indicated string/fret
/ = slide up from infinity
\ = slide down into infinity

The lyrics are not in time with the guitar tablature.
I tried to get the lead guitar in time with the rhythm guitar as best as I could.

Enjoy.

 Rhythm Guitar
e|-------------------------------2----2--------------|
B|-------------------------------3----3--------------|
G|---------------------------5---2----2----2--2------|
D|------2----2--2----4---5---5---0----0----2--2------|
A|------2----2--2----4---5---3-------------0--0------|
E|-10\--0----0--0----2---3---------------------------|
 |
 |Lead Guitar
e|---------------------------------------------------|
B|------15b17-------15~~~-12--15--12-----------------|
G|----------------------------------14b16--14--12----|
D|---------------------------------------------------|
A|---------------------------------------------------|
E|---------------------------------------------------|


e|---------------------------2------2--2------------------|
B|---------------------------3------3--3------------------|
G|-----------------------5---2------2--2------------------|
D|--2----2--2----4---5---5---0------0--0------------------|
A|--2----2--2----4---5---3--------------------------------|
E|--0----0--0----2---3------------------------------------|
 |
 |
e|--------15----------------------------------------------------------|
B|--15b17----15~~-12--------------------------------------------------|
G|-------------------14b16r14p12--------12----------------------------|
D|--------------------------------14-12----14~------------------------|
A|--------------------------------------------------------------------|
E|--------------------------------------------------------------------|


e|----------------------------2----2--------------|
B|----------------------------3----3--------------|
G|------------------------5---2----2----2--2------|
D|---2----2--2----4---5---5---0----0----2--2------|
A|---2----2--2----4---5---3-------------0--0------|
E|---0----0--0----2---3---------------------------|
 |
 |
e|----------------------15b17--15b17~---12----------------------------|
B|--15b17-15b17-15~~-12-------------------15--------------------------|
G|--------------------------------------------------------------------|
D|--------------------------------------------------------------------|
A|--------------------------------------------------------------------|
E|--------------------------------------------------------------------|


e|---------------------------2------------------------|
B|---------------------------3------------------------|
G|-----------------------5---2------------------------|
D|--2----2--2----4---5---5---0------------------------|
A|--2----2--2----4---5---3----------------------------|
E|--0----0--0----2---3--------------------------------|
 |
 |
e|--------------------------------------------------------------------|
B|--15b17-15b17-15~-12------------------------------------------------|
G|--------------------14b16--16r14p12-12------------------------------|
D|---------------------------------------14~--------------------------|
A|--------------------------------------------------------------------|
E|--------------------------------------------------------------------|

Verse:
e|---------------------2---2---2-------3---3---3---------------------------|
B|---------------------3---3---3-------3---3---3---------2---2---2--3--2---|
G|---------------------2---2---2-------0---0---0---------2---2---2--2--2---|
D|-2---2---2-----------0---0---0-------------------------2---2---2--2--2---|
A|-2---2---2---------------------------------------------0---0---0--0--0---|
E|-0---0---0---------------------------------------------------------------|
  I won't stand bein' broken hearted   I won't be pushed around

e|---------------------2---2---2-------3---3---3---------------------------|
B|---------------------3---3---3-------3---3---3---------2---2---2--3--2---|
G|---------------------2---2---2-------0---0---0---------2---2---2--2--2---|
D|-2---2---2-----------0---0---0-------------------------2---2---2--2--2---|
A|-2---2---2---------------------------------------------0---0---0--0--0---|
E|-0---0---0---------------------------------------------------------------|
  The rules were set when we got started  but lately I have found

e|---------------------2---2---2-------3---3---3---------------------------|
B|---------------------3---3---3-------3---3---3---------2---2---2--3--2---|
G|---------------------2---2---2-------0---0---0---------2---2---2--2--2---|
D|-2---2---2-----------0---0---0-------------------------2---2---2--2--2---|
A|-2---2---2---------------------------------------------0---0---0--0--0---|
E|-0---0---0---------------------------------------------------------------|
  We've spent too little time and too much heartache i feel we're losin' ground

e|------------------------------------------------------------------|
B|---------------------------------------15b17--15b17--15b17-15b17--|
G|-5-5-5-5-5-5-5-5-5-5-5-5-5-5--4-----------------------------------|
D|-5-5-5-5-5-5-5-5-5-5-5-5-5-5--4-----------------------------------|
A|-3-3-3-3-3-3-3-3-3-3-3-3-3-3--2-----------------------------------|
E|------------------------------------------------------------------|
 pm___________________________
And lately I've been hearing
you won't be needing me around

Chorus:
e|----------------------------2----2--------------|
B|----------------------------3----3--------------|
G|------------------------5---2----2----2--2------|
D|---2----2--2----4---5---5---0----0----2--2------|
A|---2----2--2----4---5---3-------------0--0------|
E|---0----0--0----2---3---------------------------|
   Don't leave me lonely just wanna be right by your side

e|----------------------------2------2--2------------------|
B|----------------------------3------3--3------------------|
G|------------------------5---2------2--2------------------|
D|---2----2--2----4---5---5---0------0--0------------------|
A|---2----2--2----4---5---3--------------------------------|
E|---0----0--0----2---3------------------------------------|
    Your one and only  tonight 

e|----------------------------2----2--------------|
B|----------------------------3----3--------------|
G|------------------------5---2----2----2--2------|
D|---2----2--2----4---5---5---0----0----2--2------|
A|---2----2--2----4---5---3-------------0--0------|
E|---0----0--0----2---3---------------------------|
 So don't leave me lonely I need you here all the time

e|----------------------------2----------------------------|
B|----------------------------3----------------------------|
G|------------------------5---2----------------------------|
D|---2----2--2----4---5---5---0----------------------------|
A|---2----2--2----4---5---3--------------------------------|
E|---0----0--0----2---3--------------------------7\--------|
 So don't leave me lonely  Oh no

Verse:
e|---------------------2---2---2-------3---3---3---------------------------|
B|---------------------3---3---3-------3---3---3---------2---2---2--3--2---|
G|---------------------2---2---2-------0---0---0---------2---2---2--2--2---|
D|-2---2---2-----------0---0---0-------------------------2---2---2--2--2---|
A|-2---2---2---------------------------------------------0---0---0--0--0---|
E|-0---0---0---------------------------------------------------------------|
 You say you need your independence  well I need mine

e|---------------------2---2---2-------3---3---3---------------------------|
B|---------------------3---3---3-------3---3---3---------2---2---2---------|
G|---------------------2---2---2-------0---0---0---------2---2---2---------|
D|-2---2---2-----------0---0---0-------------------------2---2---2---------|
A|-2---2---2---------------------------------------------0---0---0---------|
E|-0---0---0---------------------------------------------------------------|
 Seperate lives and seperate feelings  I guess thats fine

e|-------------------------------------|
B|-------------------------------------|
G|-0h2p0h2p0-0h2p0h2p0-----------------|
D|-------------------------------------|
A|-------------------------------------|
E|-------------------------------------|


e|---------------------2---2---2-------3---3---3---------------------------|
B|---------------------3---3---3-------3---3---3---------2---2---2--3--2---|
G|---------------------2---2---2-------0---0---0---------2---2---2--2--2---|
D|-2---2---2-----------0---0---0-------------------------2---2---2--2--2---|
A|-2---2---2---------------------------------------------0---0---0--0--0---|
E|-0---0---0---------------------------------------------------------------|
 But that won't last it's no solution I know it can't survive

e|------------------------------------------------------------------|
B|---------------------------------------15b17--15b17--15b17-15b17--|
G|-5-5-5-5-5-5-5-5-5-5-5-5-5-5--4-----------------------------------|
D|-5-5-5-5-5-5-5-5-5-5-5-5-5-5--4-----------------------------------|
A|-3-3-3-3-3-3-3-3-3-3-3-3-3-3--2-----------------------------------|
E|------------------------------------------------------------------|
 pm___________________________
 And lately I've been thinkin' - 
 Thinkin' 'bout you all the time

-CHORUS

then
e|----------------------------2----2--------------|
B|----------------------------3----3--------------|
G|------------------------5---2----2----2--2------|
D|---2----2--2----4---5---5---0----0----2--2------|
A|---2----2--2----4---5---3-------------0--0------|
E|---0----0--0----2---3---------------------------|
 |
 |
e|--------------------------------------------------------------------|
B|--15b17-15b17-15b17--12-15-12---------------------------------------|
G|------------------------------14b16-14-12---------------------------|
D|--------------------------------------------------------------------|
A|--------------------------------------------------------------------|
E|--------------------------------------------------------------------|


e|----------------------------2------2--2------------------|
B|----------------------------3------3--3------------------|
G|------------------------5---2------2--2------------------|
D|---2----2--2----4---5---5---0------0--0------------------|
A|---2----2--2----4---5---3--------------------------------|
E|---0----0--0----2---3------------------------------------|
 |
 |
e|----------15--------------------------------------------------------|
B|--15b17------15b17r15--12-15-12-------------------------------------|
G|-------------------------------14b16-12-----------------------------|
D|----------------------------------------14--------------------------|
A|--------------------------------------------------------------------|
E|--------------------------------------------------------------------|


e|----------------------------2----2--------------|
B|----------------------------3----3--------------|
G|------------------------5---2----2----2--2------|
D|---2----2--2----4---5---5---0----0----2--2------|
A|---2----2--2----4---5---3-------------0--0------|
E|---0----0--0----2---3---------------------------|
 |
 |
e|---------------------------------------------------------|
B|---------------------------------------------------------|
G|--2b3r2--2b3--2--2~~---2---------------------------------|
D|--------------------------5--4--2------------------------|
A|----------------------------------2----------------------|
E|------------------------------------0--------------------|


e|----------------------------2----------------------------------------|
B|----------------------------3----------------------------------------|
G|------------------------5---2----------------------------------------|
D|---2----2--2----4---5---5---0----------------------------------------|
A|---2----2--2----4---5---3--------------------------------------------|
E|---0----0--0----2---3------------------------------------------------|
 |
 |
e|---------------------------------------------------------------|
B|-----------------------------10p7--10p7--10p7--10p7--10p7------|
G|---------------------------------9-----9-----9-----9-----9-----|
D|---------------[5]---7~~~~-------------------------------------|
A|---------------------------------------------------------------|
E|---------------------------------------------------------------|


e|---2-----------------------------------------3----3----3------------|
B|---3-----------------------------------------3----3----3------------|
G|---2-----------------------------------------0----0----0------------|
D|---0----------------------------------------------------------------|
A|--------------------------------------------------------------------|
E|--------------------------------------------------------------------|
 |
 |
e|-------------------------------------------15b17-15b17-15b17\-------|
B|--13p10---15p12---15p12---15p12---15p12-----------------------------|
G|-------12------14------14------14------14---------------------------|
D|--------------------------------------------------------------------|
A|--------------------------------------------------------------------|
E|--------------------------------------------------------------------|


e|--3----3----3-----|
B|--3----3----3-----|
G|--0----0----0-----|
D|------------------|
A|------------------|
E|------------------|
 |
 |
e|-15b17-15b17-15b17-------|
B|-------------------------|
G|-------------------------|
D|-------------------------|
A|-------------------------|
E|----------------------7\-|

Play chorus again.

e|----------------------------2----2--------------|
B|----------------------------3----3--------------|
G|------------------------5---2----2----2--2------|
D|---2----2--2----4---5---5---0----0----2--2------|
A|---2----2--2----4---5---3-------------0--0------|
E|---0----0--0----2---3---------------------------|
 |
 |
e|--------------------------------------------------------------------|
B|--15-slow-bend-17------15-slow-bend-17-15b17------------------------|
G|--------------------------------------------------------------------|
D|--------------------------------------------------------------------|
A|--------------------------------------------------------------------|
E|--------------------------------------------------------------------|


e|---------------------------2---------2------------------|
B|---------------------------3---------3------------------|
G|-----------------------5---2---------2------------------|
D|--2----2--2----4---5---5---0---------0------------------|
A|--2----2--2----4---5---3--------------------------------|
E|--0----0--0----2---3------------------------------------|
 |
 |
e|-------------12---------------------------------------------|
B|-15-12---------12-------------------------------------------|
G|------14b16------14b16r14p12-14b16r14p12-14-----------------|
D|------------------------------------------------------------|
A|------------------------------------------------------------|
E|------------------------------------------------------------|


e|----------------------------2----2--------------|
B|----------------------------3----3--------------|
G|------------------------5---2----2----2--2------|
D|---2----2--2----4---5---5---0----0----2--2------|
A|---2----2--2----4---5---3-------------0--0------|
E|---0----0--0----2---3---------------------------|
 |
 |
e|--------------------------------------------------|
B|--15b17-15b17--15-12---------15-------------------|
G|----------------------14b16-----14b16r14----------|
D|--------------------------------------------------|
A|--------------------------------------------------|
E|--------------------------------------------------|


e|----------------------------2----------------------------|
B|----------------------------3----------------------------|
G|------------------------5---2----------------------------|
D|---2----2--2----4---5---5---0----------------------------|
A|---2----2--2----4---5---3--------------------------------|
E|---0----0--0----2---3------------------------------------|
 |
 | the timing is way off between these sections.
e|--------------------------------------------------------------------|
B|--------------------------------------------------------------------|
G|-12-14-14b16r14--12-------------------------------12----------------|
D|--------------------14-12----------------12-14-12----14~------------|
A|--------------------------14-12-10--12h14---------------------------|
E|--------------------------------------------------------------------|


e|--------------------------------------------------------------------|
B|--------------------------------------------------------------------|
G|-5---5---5---5---5---5---5---5---5---5---5---5---5---5--------------|
D|-5---5---5---5---5---5---5---5---5---5---5---5---5---5--------------|
A|-3---3---3---3---3---3---3---3---3---3---3---3---3---3--------------|
E|--------------------------------------------------------------------|
 |pm____________________________________________________
 |
 |
e|------12------12------12------12------12------12------12-----|
B|-12h15---12h15---12h15---12h17---12h17---12h17---12h17-------|
G|-------------------------------------------------------------|
D|-------------------------------------------------------------|
A|-------------------------------------------------------------|
E|-------------------------------------------------------------|


e|-------------------------------|
B|-------------------------------|
G|-4-----------------------------|
D|-4--let-ring-------------------|
A|-2-----------------------------|
E|-------------------------------|
 |
 |
e|---------12-15-15b17--15-12-15-14-12-----------------------------|
B|--15b17~-----------------------------12--15b17-15b17-15b17-------|
G|-----------------------------------------------------------------|
D|-----------------------------------------------------------------|
A|-----------------------------------------------------------------|
E|-----------------------------------------------------------------|


e|-------------------------------|
B|-------------------------------|
G|-------------------------------|
D|-------2---2--2---4--5---------|
A|-------2---2--2---4--5---------|
E|--7\---0---0--0---2--3---------|

            
            
Suggest correction
Creating personal tab
Creating personal tab
You can edit any tab online and save it as your Personal.

You can edit, replace or remove any tab part or add personal notes – all changes will be seen only by you.

Personal tabs can be accessed anytime from any device, even offline.
Learn more »
Give kudos to tab author, rate the tab!
1 2 3 4 5
comments
print report bad tab
guest
You may want to rate the tab now too:
select rating
Wanna post a correction for this tab? Suggest correction