Oops, an error
Loading. Please wait.

Everything I Do I Do It For You Tab

version 3
version 3
69,346 views 15 this week
4 commentsread comments
1 2 3 4 5
x 9
add to favorites
×
Save as Personal and add changes to this tab that will be seen only by you. Learn more ›
launch autoscroll
font size
0
reset
how to read this tab
guitar tuner
Autoscroll
slow
fast
+/-
esc
set tempo
stop
Author
Difficulty
Tuning
intermediate
D# G# C# F# A# D#
(Gtr 1) (Db Ab Db Gb Bb Eb) - 'Solo Guitar'

[Intro]
Q=70
  D                        Asus4       A         G
(4/4)
(Gtr 1)
   E E E E E E S S a S S   E E E E E E S S S S   E E E E E E S S a S S
D#|-^2-----------3-5-2h3-2-|-0-----------0-5-5---|-----------------0h2----|
A#|-^3---3---3---3---------|-------------2-----3-|-3---3---3---3-5-----3--|
F#|-^2-2---2---2-----------|-2---2---2-----------|-4---4---4---4----------|
C#|-^0---------------------|---0-2-0-2-0---------|---5---5---5------------|
G#|------------------------|-0-------------------|------------------------|
D#|------------------------|---------------------|-5----------------------|
   W                       W                     W

[Verse]
    Asus4            D                            Dsus2           A/D
    E E E E H        Q   S S S S S E. S S a S S   Q   E.   S S E. S S S S
D#|-0------------|--2---2-3-2-0-0----3-5-2h3-2-|-0---0-----------0-5-5---|
A#|--------------|o-3-------------3--3-----3---|-3--------3------2-----3-|
F#|-2---2---2----|--2--------------------------|-2----------4-2----------|
C#|---0-2-0-2----|-----------------------------|-------------------------|
G#|-0------------|o----------------------------|-------------------------|
D#|--------------|--0-------0---0--------------|-0------0---0------------|
  W                Q.      E   H                Q.     E   H

    G                  Asus4           A      D
    Q   E E Q  S S E   E  E E E E  E   E. S   S  S E E E E E E. S
D#|------------2-0---|-0----0---0------2--3-|-2--0-----------0-----|
A#|-0---0-2-3--0---3-|----3---3----3---2----|------3-3---3------3--|
F#|-0---0---4--0-----|-2---------------2----|-2--------2---2-------|
C#|------------------|----------------------|--------4---4---------|
G#|------------------|-0------0-0----0-0----|----------------------|
D#|-5-----5-5--------|----------------------|-0--------0-0---------|
  Q.    E H          Q.     E E.   S Q      Q.       E H

    Dsus2         A/D       G                D/A        A
    S  E. E E E E S S S S   Q   Q   Q  E E   S  S E E E Q.     E
D#|-------0---0-----------|------------3---|-2--0-----0-0------2--|
A#|-0-------3---3-2-------|-0---2---3--3-5-|------3-----2---------|
F#|----2--2---2-----2-2-2-|-0-------4--4---|-2------2---2---------|
C#|-----------------------|----------------|----------------------|
G#|-----------------------|----------------|-0--------0-0--0-0-0--|
D#|-0-------0-0-----------|-5-----5-5------|----------------------|
  Q.      E H             Q.    E H        Q.       E E. S E E

[Pre-Chorus]
    Em                D     Em           D/E     Em                D
    Q      E. S  E  E E E   E  E E E E E S S E   Q      E. S  E  E E E
D#|-3------3--2--3--7-5---|-0----0---0---2---2-|-3------3--2--3--7-5----|
A#|-5------------5----7-7-|----0---0---0---3---|-5------------5----7-7--|
F#|-4------------4----7---|-0--------0---2-----|-4------------4----7----|
C#|-----2-------(2)-------|--------------------|-----2-------(2)--------|
G#|---2-------------------|--------------------|---2--------------------|
D#|-2-----------------0---|-2------2-2---------|-2-----------------0----|
  S S Q.      +Q    Q     Q.     E H           S S Q.      +Q    Q

[Chorus]
    Em                    D                       Asus4
    E  E E E E. S E S S   E  E E E E  E S S S S   E  E E E E. S E E S S
D#|-0----0---0----2-2-0-|---------------3-5-3-2-|-0----0---0----2-2-2-0-|
A#|----0---0------------|-3----3---3----3-------|----3---3--------------|
F#|-0-----------2-------|----2---2----2---------|-2-----------2---------|
C#|---------------------|-4---------------------|-----------------------|
G#|-----------------2---|-----------------------|-0------0-0------------|
D#|-2------2-2----2-----|-0------0-0--------0---|-----------------------|
  Q.     E Q    E E     Q.     E Q.       E     Q.     E H

    D5
    W                   H.        E S S
D#|-------------------|------------------|
A#|-3-----------------|-3-----------3---o|
F#|-2-----------------|-2---------2---2--|
C#|---------------0---|------------------|
G#|-------------0-----|-----------0-----o|
D#|-0----0-0--0-----0-|-0----0-0---------|
  Q.   E Q  S S S S   Q.   E Q  Q

    D            Dsus4   D
    E  E E E E E  Q      E  E E E Q    Q
D#|--------------------|--------------------|
A#|-3----3---3----3----|-3----3---3----3----|
F#|----2---2---2--2----|----2---2------2----|
C#|-4-------------5----|-4-------------4-0--|
G#|------------------0-|---------------0----|
D#|-0------0-0---(0)---|-0------0-0--0------|
  Q.     E Q   +E. S   Q.     E E. S S E.

[Bridge]
    C               F                         C
    Q   H      Q    Q   S S E +Q    E   E     E  S S H      E E
D#|-0---0------0--|-1---1-----------1---3---|-3-------------1-3-|
A#|-1---1------1--|-1-----3-1-(1)-----------|-5--6-5-5------3---|
F#|-0---0------0--|-2---2---2-(2)-----------|-5------5------4---|
C#|---------------|-------------------------|-------------------|
G#|-3-----3-3--3--|---------------3---3-----|-3--------3-3--3---|
D#|---------------|-3-------3--3----3---3-5-|-------------------|
  Q.    E Q  Q    Q.      E  E. S S S S S   Q.       E Q  Q

    G                       D                       A
    E  S S H        Q       S  E. S S E +Q    E E   E  S S H      E.   S
D#|-3---------------3-----|-3--2--2-0---------2-5-|-5-------------5----5-|
A#|-3--6-3-3--------3-----|-3---------3-(3)---3---|-5--8-5-5------5------|
F#|-4------4--------4-----|-2-----2-----------2---|-6------6------6------|
C#|-----------------------|-----------------------|--------7-------------|
G#|-----------------------|---------------------0-|-0--------0-0--4--5---|
D#|-5--------5-5--0-5-0-5-|-0---------0--0--0-4---|----------------------|
  Q.       E E. S S S E   Q.        E  E. S E E   Q.       E Q  E  E

    E                       A     Asus4
     E  E +S  S E Q  E. S   E  Q  E +E  Q.
D#|------------------7--9-|-7--5--7-(7)-5----|
A#|-10--9-(9)-7---9--9----|-5-----5-(5)------|
F#|--9----------9-9--9----|-6-----7-(7)------|
C#|--9------------9-------|------------------|
G#|--7----------7-7--7----|-0-----0-(0)------|
D#|-----------------------|------------------|
   Q.         E Q  Q      Q.    E +H

[Guitar Solo]
                         Gadd9
    +H     E. S +E  E    H      +E. S +S  S E
D#|-(5)---------------|-----------------------|
A#|-(5)----5--7-(7)---|-3------(3)-3-(3)---3--|
F#|-(7)-------------4-|-4------(4)------------|
C#|-------------------|-7------(7)-7-(7)-5-7--|
G#|-(0)---------------|-----------------------|
D#|-------------------|-5----5--5-------------|
  +W                   Q.   E  H

                        D
    H      E. S +E  E   H.         S S E
D#|-------------------|------------------|
A#|-3------5--7-(7)-0-|-3--------------3-|
F#|-4---------------0-|-2------------2---|
C#|-7------7--7-(7)---|-4----------4-----|
G#|-----------------0-|----------------0-|
D#|-5----5-5----------|-0----0-0---------|
  Q.   E Q.       E   Q.   E Q.      E

                        Gadd9
    H      E. S +E  E   H      +E. S +S  S E
D#|--------0--2-(2)---|-----------------------|
A#|-3------3--3-(3)-0-|-3------(3)-3-(3)---3--|
F#|-2------2--2-(2)-2-|-4------(4)------------|
C#|-4-----------------|-7------(7)-7-(7)-5-7--|
G#|-------------------|-----------------------|
D#|-0----0-0--0-(0)-0-|-5----5--5-------------|
  Q.   E E. S +E  E   Q.   E  H

                        D
    H      E. S +E  E   H      +E. S S S E     H        Q   S E.
D#|-------------------|--------------0-------|----------5---5-5----|
A#|-3------5--7-(7)-0-|-3------(3)-----------|-3--------7---7-7----|
F#|-4---------------0-|-2------(2)-------2---|-2--------7---7-7----|
C#|-7------7--7-(7)---|-4------(4)-4---4-----|-4-------------------|
G#|-----------------0-|------------------2-0-|------2-0------------|
D#|-5----5-5----------|-0----0--0------------|-0--------0--------4-|
  Q.   E Q.       E   Q.   E  Q.       S S   Q.   S S Q.       E

[Pre-Chorus]
     Em                     A    Asus4     A      Em
     Q   E.   S E E E   E   Q.   E +E  E   S E.   Q   E.   S E E E   E
D#|-3---3----2-3-7-5---2-|-0----0-(0)-0---5-5--|-3---3----2-3-7-5---2--|
A#|-5----------5---------|-2----3-(3)-2---5-5--|-5----------5----------|
F#|-4----------4---------|-2----2-(2)-----6-6--|-4----------4----------|
C#|----------------2---2-|---------------------|----------------2---2--|
G#|------------------2---|-0----0--0------0----|------------------2----|
D#|-2------2---2---------|--------------2------|-2------2---2----------|
   Q.     E   Q   S S E   Q.   E  E.   S Q      Q.     E   Q   S S E

[Chorus]
    A                        D            Dsus4 D     A               AsAs4
    H      E. S +S  S E      S  E. E E E. S +E  E     S  S E E E +Q   E S S
D#|-0---------3-(3)-3-3---|-3--2--2-2-2--3-(3)-5---|-5--2-0-0-0-(0)--5---7-|
A#|-2---------2-(2)-------|-3---------3--3-(3)-7---|-----------------5-----|
F#|-2---------2-(2)-------|-2------------------7---|-2---------------7-6---|
C#|-----------------------|------------------------|-----------------------|
G#|-0----0-0----------0-2-|------------------------|-0--------0--0---0-----|
D#|-----------------------|-0-------0-0--0-(0)-0-2-|-----------------------|
  Q.   E Q.         S S    Q.      E E. S +E  S S   Q.       E  Q   Q

    G                     Gm
    Q   E E +E. S +E  E   E. S +E  E +Q   S S S S
D#|-5---3-3-(3)-5-(5)-3-|-3--5-(5)-6-(6)------5-3-|
A#|-3-------------------|-3-----------------3-----|
F#|-4-------------------|-3-----------------------|
C#|---------------------|-------------------------|
G#|---------------------|-------------------------|
D#|-5-----5--5-----5--0-|-5-----------------------|
  Q.    E  Q     E  E   W

[Outro]
    D/A               Asus4   A
    H.      S S S S   E E E E Q  E S S
D#|-2-------3-5-3-2-|-0----------2-0----|
A#|-3-------3-------|-3---3---2------3--|
F#|-2---------------|---2---2-2---------|
C#|-----------------|-------------------|
G#|-0---------------|-0-----------------|
D#|-----------------|-------------------|
  W                 W

    H.=H
    G       G6         D
    E E E E E. S E E   S  E. Q    H
D#|---------0----2-2-|-0---------^2----*|
A#|-3---3------------|----3--3---^3----*|
F#|-4---4---4--2-----|-2-----2---^2----*|
C#|---5---5-5--------|-4-----4---------*|
G#|------------------|---------0-------*|
D#|-5----------------|-0---------^0----*|
  W                  Q.      E  H



************************************

| h    Hammer-on
| (n)  Ghost note
| *    Natural harmonic

************************************
Suggest correction
comments
print report bad tab
4 comments total. Showing first comments.
0 reply
Jessi7 10 Feb 08, 2009 12:34 PM

Thank you very much!

0 reply
ultimachaos 10 Jun 24, 2009 12:51 AM

hey do u reckon u could tab the solo at the end of the song?, it starts at 4 52 thru to 6 15, coz i kno the first one and id really like to kno this one, its sounds really , and itd b a great help if u could do it, i cant lol

0 reply
ultimachaos 10 Jun 24, 2009 12:52 AM

oh and awesome tab btw :)

guest
You may want to rate the tab now too:
select rating
Wanna post a correction for this tab? Suggest correction