Oops, an error
Loading. Please wait.

Flying Bass Tab

419 views 1 this week
no commentswrite comment
1 2 3 4 5
please rate
add to favorites
launch autoscroll
font size
0
reset
guitar tuner
Autoscroll
slow
fast
+/-
esc
set tempo
stop
Help us to improve Ultimate-Guitar.com Take our survey!
×
Author
Difficulty
novice
Standard Tuning (E-A-D-G)


This Good for beginners also good for better bass players
enjoy!


/ - slide



(verse 1) No Bass



(Pre Chorus 1) 

 
".. Make Love, all day, lets just hold on
E---------0-----------------------------0------------->
A-------------------2--------------------------------->
D----------------------------------------------------->
G----------------------------------------------------->


  so tight, let's make it last, for live 
E--------------------------0---------2---------------->
A-----2----------------------------------------------->
D----------------------------------------------------->
G----------------------------------------------------->

 
 I Wont let you go
E-------------2--2------------------------------------>
A----------------------------------------------------->
D----------------------------------------------------->
G----------------------------------------------------->


(Chorus 1)
".. Flying     Fells just like flying
E--------7--7--------------7/----2-----2-------------->
A----------------------------------------------------->
D----------------------------------------------------->
G----------------------------------------------------->


  Were such long way up, from the ground
E------------0-------/12---12-------7--5-7------------>
A----------------------------------------------------->
D----------------------------------------------------->
G----------------------------------------------------->


 Just you and me flying so high and were never come down
E------------------0----------------------2----------->
A---------------------------2------------------------->
D----------------------------------------------------->
G----------------------------------------------------->


(Verse 2)


 Every time you turn around or wanna run
E----------------------------------2-4---------------->
A--2-------------------------------------------------->
D----------------------------------------------------->
G----------------------------------------------------->


 oh.. come to me when every little dreams come undone
E------2-------------------------------------2-4----->
A----------------------2------------------------------>
D----------------------------------------------------->
G----------------------------------------------------->


oh.. don't worry
E-----2----------------------------------------------->
A----------------------------------------------------->
D----------------------------------------------------->
G----------------------------------------------------->

(Pre-Chorus 2)

".. make love, all day lets just hold on, so tight
E---------0-----------------------0------------------->
A--------------------2-------------------------2------>
D----------------------------------------------------->
G----------------------------------------------------->


 let's make it last for life, i won't let you go
E---------------0------------------------------------->
A-------------------------9-----------------9-9------->
D----------------------------------------------------->
G----------------------------------------------------->



(Chorus 2)


 Yeah were flying, Feels just like flying
E-----------7-------------------------2------2-------->
A--6--4----------------------------------------------->
D----------------------------------------------------->
G----------------------------------------------------->



  Were such long way up, from the ground
E------------0-------/12---12-------7--5-7------------>
A----------------------------------------------------->
D----------------------------------------------------->
G----------------------------------------------------->


 Just you and me flying so high and were never come down
E------------------0----------------------2----------->
A---------------------------2------------------------->
D----------------------------------------------------->
G----------------------------------------------------->



(Solo)


 
E-----0-------0--------------------------------------->
A---------2-------2----------------------------------->
D----------------------------------------------------->
G----------------------------------------------------->



You Know rest from here.


Any Questions Mail akobsen@hotmail.com
Suggest correction
Give kudos to tab author, rate the tab!
1 2 3 4 5
comments
print report bad tab
guest
You may want to rate the tab now too:
select rating
Please do not post tabs as comments. Select "correction" instead!