Oops, an error
Loading. Please wait.

Here I Am Tab

version 1
version 1

Acoustic

Whole song

Interactive

79 views 21 this week
no commentswrite comment
1 2 3 4 5
3 more votes to show rating
add to favorites
launch autoscroll
font size
0
reset
how to read this tab
guitar tuner
Autoscroll
slow
fast
+/-
esc
set tempo
stop
Help us to improve Ultimate-Guitar.com Take our survey!
×
Author
Difficulty
Capo
intermediate
1st fret
[Intro]

e|----------5--------2-----2--0----------|----------5--------2-----2--0-------------|
B|-0--2--3--------2--------------3--2--0-|----2--3--------2--------------3--2--0----|
G|-------------4--------2----------------|-------------4---------2------------------|
D|---------------------------------------|------------------------------------------|
A|-2--------------------------0----------|-2--------------------------0-------------|
E|----------3----------------------------|----------3-------------------------------|

e|----------5--------2-----2--0----------|----------2-----5-------------------------|
B|----2--3--------2--------------3--2--0-|-------0-----------------------0--3-------|
G|-------------4--------2----------------|----0--------------------0--2-------------|
D|---------------------------------------|-------------4--------0-------------------|
A|-2--------------------------0----------|------------------------------------------|
E|----------3----------------------------|-0-----------------3----------------------|


[Verse]

e|---------------------|------------------------|------------------------|--------------------|
B|-2--3--3-------------|-3--2--2--------------2-|-2--0--0--0--3----------|--------------------|
G|---------------------|-------2-----2--------2-|-------0-----0--------0-|----2---------------|
D|-------0-----0-----0-|----2-----2--------2----|----0-----0--------0----|-4--0-----0-----0---|
A|----0-----0-----0----|-0--------------0-------|------------------------|-0-----0-----0------|
E|---------------------|------------------------|-3--------------3-------|--------------------|

e|---------------------------------------|-------------------------------------------|
B|-2--0--3-------------------------------|-------------------------------------------|
G|-------0-----0--------0--0--------2----|-------------------------------------------|
D|----0-----0--------0-----------4-----0-|----4--4--2--2--2-----2--0--2--2-----------|
A|----------------------------0--5--0----|-0--5--------3-----3--------3--------0--4--|
E|-3--------------3----------------------|----------3-----3--------3--------0--------|


[Chorus]

e|----------2-----------------------2-------0-|----------------0--2--2--0--0--0--2--------0---|
B|----------------0--3------------------------|----------3-----0------------------------------|
G|----2--2-----------------0--2--2------------|----2--2---------------------------------------|
D|-2-----------4--------0----------------0----|-2-----------4-----------0--------------0------|
A|----------2-------------------------0-----0-|----------2-----------0--------------0-----0---|
E|-------------------3------------------------|-------------------3---------------------------|

e|-------------5-----------------------2--------0-|-------------3-----2--0----------|
B|-------------------0--3-------------------------|-------------------------0--3----|
G|----2--2--2-----------------0--2--2-------------|----2--2--2-----------0----------|
D|-2--------------4--------0-----------------0----|-2-----------------2-------------|
A|-------------2--------------------------0-----0-|----------------2----------------|
E|----------------------3-------------------------|-------------0-------------------|


[Outro]

e|------------|----------5--------2-----2--0----------|----------5--------2-----2--0----------|
B|----2--3--3-|----2--3-----0--3--------------3--2--0-|----2--3-----0--3--------------3--2--0-|
G|----2-------|----------------------2----------------|----------------------2----------------|
D|------------|---------------------------------------|---------------------------------------|
A|------------|-2--------------------------0----------|-2--------------------------0----------|
E|-3----------|----------3----------------------------|----------3----------------------------|

e|----------5--------2-----2--0----------|-------------------2-------------------|
B|----2--3-----0--3--------------3--2--0-|----------3--0--3-----------------0--3-|
G|----------------------2----------------|-------0--------------------0--2-------|
D|---------------------------------------|----4--------------------0-------------|
A|-2--------------------------0----------|---------------------------------------|
E|----------3----------------------------|-0--------------------3----------------|
Suggest correction
Give kudos to tab author, rate the tab!
1 2 3 4 5
comments
print report bad tab
guest
You may want to rate the tab now too:
select rating
Wanna post a correction for this tab? Suggest correction