Oops, an error
Loading. Please wait.
We have an official Its Only Love tab made by UG professional guitarists. Check out the tab »
×
28,461 views 75 this week
2 commentsread comments
1 2 3 4 5
x 8
add to favorites
×
Save as Personal and add changes to this tab that will be seen only by you. Learn more ›
×
You can save this tab as Personal to edit and correct it or add notes. All changes will be seen only by you. Learn more »
launch autoscroll
font size
0
reset
how to read this tab
guitar tuner
backing track
0:00
0:00
edit
Autoscroll
slow
fast
+/-
esc
set tempo
stop
Author
|------3-----------------------------------------------------|
|-3----3-----------------------5--5-5-x-5-5----5--5-5-x-5-5--|
|-2----0----2----3-------------4--4-4-x-4-4----4--4-4-x-4-4--|
|-0----2----2----3--------3----3--3-3-x-3-3----3--3-3-x-3-3--|
|------3----0----1----3-5---5--3--3-3-x-3-3----3--3-3-x-3-3--|
|------------------------------------------------------------|

and thats it there shouldn't be any mistakes looking at how small the peice is but there 
go!



************************************

| x  Dead note

************************************

            
            
Suggest correction
Creating personal tab
Creating personal tab
You can edit any tab online and save it as your Personal.

You can edit, replace or remove any tab part or add personal notes – all changes will be seen only by you.

Personal tabs can be accessed anytime from any device, even offline.
Learn more »
comments
print report bad tab
2 comments total.
0 reply
Slash2kai9 45 Sep 14, 2009 08:03 AM

please rate if its good or bad

cheers m8s

0 reply
--speedy-- 352 Aug 21, 2012 01:37 AM

the fifth chord is an F

|------3-----------------------1--1-1-x-1---1--1-1-x-1-|
|-3----3-----------------------1--1-1-x-1---1--1-1-x-1-|
|-2----0----2----3-------------2--2-2-x-2---2--2-2-x-2-|
|-0----2----2----3--------3----3--3-3-x-3---3--3-3-x-3-|
|------3----0----1----3-5---5--3--3-3-x-3---3--3-3-x-3-|
|------------------------------1--1-1-x-1---1--1-1-x-1-|

guest
You may want to rate the tab now too:
select rating
Wanna post a correction for this tab? Suggest correction