Oops, an error
Loading. Please wait.
We have an official Run To You tab made by UG professional guitarists. Check out the tab »
×

Run To You tab

114,557 views 81 this week
2 commentsread comments
1 2 3 4 5
x 6
add to favorites
×
Save as Personal and add changes to this tab that will be seen only by you. Learn more ›
×
You can save this tab as Personal to edit and correct it or add notes. All changes will be seen only by you. Learn more »
launch autoscroll
font size
0
reset
how to read this tab
guitar tuner
backing track
0:00
0:00
edit
Autoscroll
slow
fast
+/-
esc
set tempo
stop
Capo 2nd Fret.
Stardard Tuning: EADGBE


(Main Riff)

e|----------------------------------------------------|
B|----------------------------------------------------|
G|----------------------------------------------------|
D|------0-------0-------------0----------0------------|
A|----2------2-----2--------2--------4------4---------|
E|--0------0----------0---3-------5-------------5-----|


[Intro Solo]

      BU   BD ^^^^^^^^^    BU            w/feedback      BD
e|------------------------------------------------------------|
B|--5--(7)---(5)----------------------------------------------|
G|-----------------------4---(6)-------------------------(4)--|
D|------------------------------------------------------------|
A|------------------------------------------------------------|
E|------------------------------------------------------------|


[Pre-Chorus]

e|-------------------------3-3-3-3--X-X----|
B|---5----------------7----3-3-3-3--X-X----|
G|---5---------5-/-7--7----2-2-2-2--X-X----|
D|---5---------5-/-7--7--------------------|
A|---3---------3-/-5--5--------------------|
E|-----------------------------------------|


[Chorus]

e|--0--X--3--3--X-2---2--X----------------|
B|--0--X--3--3--X-3---3--X---2--2--2--X---|     
G|--0--X--0--0--X-2---2--X---2--2--2--X---|
D|--2--X--0--0--X-0---0--X---2--2--2--X---|
A|--2--X--------X------------0--0--0--X---|
E|--0--X--3--3--X-------------------------|(x3)


[Interlude]

              ^^^^^^^^                  ^^^^^^^^           ^^^^^^^^
e|---------------------------------------------------------------------|
B|--9-10-9-----------------7--8--7---------------5-6-5-----------------|
G|---------9-----------------------7-------------------5---------------|
D|-----------9-------------------------7------------------5------------|
A|---------------------------------------------------------------------|
E|---------------------------------------------------------------------|
               ^^^^^^^^^
E-------------------------|
B---7-8-7-----------------|
G----------7--------------|
D-------------7-----------|
A-------------------------|
E-------------------------|


[Chorus]


e|-0--0--X--3----3--X-----2---2---X-----------------------|
B|-0--0--X--3----3--X-----3---3---X-----------------------|
G|-0--0--X--0----0--X-----2---2---X---2----------2---2--2-|
D|-2--2--X--0----0--X-----0---0---X---2----------2---2--2-|
A|-2--2--X----------------------------0----------0---0--0-|
E|-0--0--X--3----3--X-------------------------------------|

************************************

| (n)  Ghost note
| /    Slide up
| X     = mute
| ^^^   = vibrato/vibrate
| 5 (4) = Bend up or down note to the pitch in the bracket
| BU    = Bend up
| BD    = Bend Down

************************************

            
            
Suggest correction
Creating personal tab
Creating personal tab
You can edit any tab online and save it as your Personal.

You can edit, replace or remove any tab part or add personal notes – all changes will be seen only by you.

Personal tabs can be accessed anytime from any device, even offline.
Learn more »
comments
print report bad tab
2 comments total.
0 reply
RubenWinter 20 Aug 27, 2016 11:36 AM

the intro is a little different

instead of
e|----------------------------------------------------|
B|----------------------------------------------------|
G|----------------------------------------------------|
D|------0-------0-------------0----------0------------|
A|----2------2-----2--------2--------4------4---------|
E|--0------0----------0---3-------5-------------5-----|

you play
e|----------------------------------------------------|
B|----------------------------------------------------|
G|----------------------------------------------------|
D|------0-------0-------------0----------0------------|
A|----2------------2--------2---------------4---------|
E|--0------0----------0---3-------5-------------5-----|

0 reply
Richarddrummer 10 Jan 08, 2017 09:12 AM, edited on January 15 2017, 10:36 am

https://youtu.be/UP5aem2PWRg ; Good Lesson, Transcription and Tab of this song:(Brief video but COMPLETE AND ACCURATE)

guest
You may want to rate the tab now too:
select rating
Wanna post a correction for this tab? Suggest correction