Oops, an error
Loading. Please wait.
We have an official Run To You tab made by UG professional guitarists. Check out the tab »
×
1,512 views 9 this week
no commentswrite comment
1 2 3 4 5
2 more votes to show rating
add to favorites
×
Save as Personal and add changes to this tab that will be seen only by you. Learn more ›
×
You can save this tab as Personal to edit and correct it or add notes. All changes will be seen only by you. Learn more »
launch autoscroll
font size
0
reset
guitar tuner
backing track
0:00
0:00
edit
Autoscroll
slow
fast
+/-
esc
set tempo
stop
Author
Difficulty
Unregistered
intermediate
Bryan Adams
Run to you

Tempo : 130 bpm 


Intro 00:08
G-------------------------|--------------------|-
D-------------------------|--------------------|-
A--------------2~---------|--------------------|-
E--2~~-2-4-5-------5-4-2~-|--2-4-5--0~-4-0--2~-|-

    
Verse 1 00:15
G-----|------------------------|------------------------|-
D-----|------------------------|------------------------|-
A-----|-----------2~-----------|------------------------|- x2
E--2~~|--2--4--5-----5--4---2~-|--2--4--5---0~--4-0--2~-|-
She says her love for me could never die
But that'll change if she'd ever find out about you and I

G------------------------|------------------------|-
D------------------------|------------------------|-
A------------------------|---------------------5~-|-
E--2--4--5---0~--4-0--2~-|--2--4--5---0~--4-0-----|-
Oh, but her love is cold
It wouldn't hurt her if she didn't know, 'coz

Pre-chorus 00:38
G---------------------------------------------------------------------|-
D---------------------------------------------------------------------|-
A--5-5-5-5-5-5-5-5-5-5-5-5-5-5-5-5-7-7-7-7-7-7-7-7-4-4-4-4-4-2-0------|-
E-----------------------------------------------------------------2---|-
When it gets too much
I need to feel your touch


Chorus 1 00:45
G-----------------------------|-----------------------------|-
D-------------2-2-------------|-------------2-2-------------|-
A-----------2-----2--4--------|-----------2-----2--4--------|-
E--2-4-5--4------------5-4-2--|--2-4-5--4------------5-4-2--|-
I'm gonna run to you
I'm gonna run to you
'Coz when the feeling's right

G-----------------------------|------------------------|-
D-------------2-2-------------|-------------2-2~~------|-
A-----------2-----2--4--------|-----------2------------|-
E--2-4-5--4------------5-4-2--|--2-4-5--4--------------|-
I'm gonna run all night
I'm gonna run to you

Instrumental riff 01:01


Verse 2 01:09
G-----|------------------------|------------------------|-
D-----|------------------------|------------------------|-
A-----|-----------2~-----------|------------------------|- x2
E--2~~|--2--4--5-----5--4---2~-|--2--4--5---0~--4-0--2~-|-
She's got a heart of gold, she'd never let me down
But you're the one that always turns me on and keeps me comin' 'round

G------------------------|------------------------|-
D------------------------|------------------------|-
A------------------------|---------------------5~-|-
E--2--4--5---0~--4-0--2~-|--2--4--5---0~--4-0-----|-
I know her love is true
But it's so damn easy making love to you

Pre-chorus 01:31
G---------------------------------------------------------------------|-
D---------------------------------------------------------------------|-
A--5-5-5-5-5-5-5-5-5-5-5-5-5-5-5-5-7-7-7-7-7-7-7-7-4-4-4-4-4-2-0------|-
E-----------------------------------------------------------------2---|-
I got my mind made up
I need to feel your touch


Chorus 2 01:38
G-----------------------------|-----------------------------|-
D-------------2-2-------------|-------------2-2-------------|-
A-----------2-----2--4--------|-----------2-----2--4--------|- x6
E--2-4-5--4------------5-4-2--|--2-4-5--4------------5-4-2--|-
I'm gonna run to you
Yeah, I'm gonna run to you
'Coz when the feeling's right
I'm gonna stay all night
I'm gonna run to you yeah...
I'm gonna run to you

G-----------------------------|------------------------|-
D-------------2-2-------------|-------------2-2~~------|-
A-----------2-----2--4--------|-----------2------------|-
E--2-4-5--4------------5-4-2--|--2-4-5--4--------------|-
Oh, when the feeling's right
I'm gonna run all night
I'm gonna run to you


Instrumental section 02:06
G--------------|--------------|---------------|--------------|-
D--------------|--------------|---------------|--------------|-
A--------------|-5~~--7--9--7-|---------------|--------------|-
E--2~~--4---0--|--------------|--5~~--4----2--|--2~~--4---0--|-


G--------------|-
D--------------|-
A-5~~--7--9--7-|-
E--------------|-

Guitar riff 

Reprise Lead into final chorus: 02:42
G----------------------|-
D----------------------|-
A--2-2-2-2-2-2-2-2-----|-
E----------------------|-


final chorus 02:43 
G-----------------------------|-----------------------------|-
D-------------2-2-------------|-------------2-2-------------|-
A-----------2-----2--4--------|-----------2-----2--4--------|- xxx
E--2-4-5--4------------5-4-2--|--2-4-5--4------------5-4-2--|-


End : 03:53

Author's note : I am back on UltimateGuitar Tabs because I saw
that 23737 (april 2013) musicians around the world had been
using my work and I like the idea of sharing music with other
musicians...
So please "rate" my tabs under Bruno Frenchy and look for me
on You Tube for some videos (just a small selection of my work
for now)...
Suggest correction
Creating personal tab
Creating personal tab
You can edit any tab online and save it as your Personal.

You can edit, replace or remove any tab part or add personal notes – all changes will be seen only by you.

Personal tabs can be accessed anytime from any device, even offline.
Learn more »
Give kudos to tab author, rate the tab!
1 2 3 4 5
comments
print report bad tab
guest
Wanna post a correction for this tab? Suggest correction