Oops, an error
Loading. Please wait.
We have an official Run To You tab made by UG professional guitarists. Check out the tab »
×
1,773 views 12 this week
3 commentsread comments
1 2 3 4 5
x 6
add to favorites
×
Save as Personal and add changes to this tab that will be seen only by you. Learn more ›
×
You can save this tab as Personal to edit and correct it or add notes. All changes will be seen only by you. Learn more »
launch autoscroll
font size
0
reset
guitar tuner
backing track
0:00
0:00
edit
Autoscroll
slow
fast
+/-
esc
set tempo
stop
Please rate this tabs / leave me a message for more to come...
Enjoy !!
Bruno

Chords : Capo on 2nd fret


Tempo : 130 bpm          
Tuning: EADG
Key signature: F sharp


Intro 00:08
G|-----|--------------------|-------------------|-
D|-----|--------------------|-------------------|-
A|-----|---------2~---------|-------------------|-
E|-9/2~|-2-4-5-------5-4-2~-|-2-4-5--0~-4-0--2~-|-



Verse 1 00:15
G|-------------------|--------------------|-
D|-------------------|--------------------|-
A|--------2~---------|--------------------|- x2
E|-2-4-5------5-4-2~-|-2-4-5--0~--4-0--2~-|-
She says her love for me could never die
But that'll change if she'd ever find out about you and I

G|--------------------|--------------------|-
D|--------------------|--------------------|-
A|--------------------|-----------------5~-|-
E|-2-4-5--0~--4-0--2~-|-2-4-5--0~--4-0-----|-
Oh, but her love is cold
It wouldn't hurt her if she didn't know, 'coz


Pre-chorus 00:38
G|------------------------------------------------|-
D|------------------------------------------------|-
A|-5--5-5--5-5-5--5-5-/-7--7-7--7-7-7--7-7--7-5-4-|-
E|------------------------------------------------|-
When it gets too much
I need to feel your touch


Chorus 1 00:45
G|--------|--------|--------|---------||--------|--------|--------|---------|-
D|--------|-----2g-|-2------|---------||--------|-----2g-|-2------|---------|-
A|--------|-2-4----|---4-2g-|-4-------||--------|-2-4----|---4-2g-|-4-------|-
E|-2g-4-5-|--------|--------|---5-4-2-||-2g-4-5-|--------|--------|---5-4-2-|-
I'm gonna run to you
I'm gonna run to you
'Coz when the feeling's right


G|--------|--------|--------|---------||--------|-------|---------------|-
D|--------|-----2g-|-2------|---------||--------|-----2-|-2~~-----------|-
A|--------|-2-4----|---4-2g-|-4-------||--------|-4-2---|---------------|-
E|-2g-4-5-|--------|--------|---5-4-2-||-2g-4-5-|-------|---------------|-
I'm gonna run all night
I'm gonna run to you


Instrumental guitar riff 01:01...............


Verse 2 01:09
G|-----|-------------------|--------------------|-
D|-----|-------------------|--------------------|-
A|-----|--------2~---------|--------------------|- x2
E|-9/2~|-2-4-5-----5-4--2~-|-2-4-5--0~--4-0--2~-|-
       She's got a heart of gold, she'd never let me down
       But you're the one that always turns me on and keeps me comin' 'round

G|-------------------|--------------------|-
D|-------------------|--------------------|-
A|-------------------|-----------------5~-|-
E|-2-4-5--0~-4-0--2~-|-2-4-5--0~--4-0-----|-
I know her love is true
But it's so damn easy making love to you


Pre-chorus 01:31
G|------------------------------------------------|-
D|------------------------------------------------|-
A|-5--5-5--5-5-5--5-5-/-7--7-7--7-7-7--7-7--7-5-4-|-
E|------------------------------------------------|-
I got my mind made up
I need to feel your touch


Chorus 2 01:38
G|--------|--------|--------|---------||--------|--------|--------|---------|-
D|--------|-----2g-|-2------|---------||--------|-----2g-|-2------|---------|-
A|--------|-2-4----|---4-2g-|-4-------||--------|-2-4----|---4-2g-|-4-------|- x6
E|-2g-4-5-|--------|--------|---5-4-2-||-2g-4-5-|--------|--------|---5-4-2-|-
I'm gonna run to you
Yeah, I'm gonna run to you
'Coz when the feeling's right
I'm gonna stay all night
I'm gonna run to you yeah...
I'm gonna run to you


G|--------|--------|--------|---------||--------|-------|---------------|-
D|--------|-----2g-|-2------|---------||--------|-----2-|-2~~-----------|-
A|--------|-2-4----|---4-2g-|-4-------||--------|-4-2---|---------------|-
E|-2g-4-5-|--------|--------|---5-4-2-||-2g-4-5-|-------|---------------|-
Oh, when the feeling's right
I'm gonna run all night
I'm gonna run to you


Instrumental  02:06
G|--------------|--------------|---------------|--------------|-
D|--------------|--------------|---------------|--------------|-
A|--------------|-5~~--7--9--7-|---------------|--------------|-
E|--2~~--4---0--|--------------|--5~~--4----2--|--2~~--4---0--|-


G|-----------------|-
D|-----------------|-
A|-5~~--7--9--7gr--|-
E|-----------------|-


Short Guitar riff............


Reprise Leading into final chorus: 02:42
G|----------------------|-
D|----------------------|-
A|--2-2-2-2-2-2-2-2-----|-
E|----------------------|-


final chorus 02:43 (chords like chorus)      repeat till fading...
G|--------|--------|--------|---------||--------|--------|--------|---------|-
D|--------|-----2g-|-2------|---------||--------|-----2g-|-2------|---------|-
A|--------|-2-4----|---4-2g-|-4-------||--------|-2-4----|---4-2g-|-4-------|- 
E|-2g-4-5-|--------|--------|---5-4-2-||-2g-4-5-|--------|--------|---5-4-2-|-

End : 03:53

            
            
Suggest correction
Creating personal tab
Creating personal tab
You can edit any tab online and save it as your Personal.

You can edit, replace or remove any tab part or add personal notes – all changes will be seen only by you.

Personal tabs can be accessed anytime from any device, even offline.
Learn more »
comments
print report bad tab
3 comments total.
0 reply
P_Trik 5,928 Aug 27, 2013 06:44 AM

I love your formatting with lyrics, time and chord progressions. Very easy to follow and accurate. Great work!!

0 reply
fizzixhawk 10 Jun 28, 2017 08:37 AM

pre-chorus ending should also have the downward progression that's at the end of the chorus.

guest
You may want to rate the tab now too:
select rating
Wanna post a correction for this tab? Suggest correction