Oops, an error
Loading. Please wait.

Summer Of 69 Bass Tab

version 2
version 2
82,550 views 159 this week
no commentswrite comment
1 2 3 4 5
x 8
add to favorites
launch autoscroll
font size
0
reset
guitar tuner
Autoscroll
slow
fast
+/-
esc
set tempo
stop
Help us to improve Ultimate-Guitar.com Take our survey!
×
Author
+-------------------------------------------------------------------|
| Song: Summer Of '69                                               |
| Album: So Far So Good (1994)                                      |
| Tuning: D A D G                                                   |
| Tabbed by: vi3x (vi3x@libero.it)                          |
| Notes: Tune down the E string to D, or try to play it with the    |
|        high D string (The original version plays in low D though) |
+-------------------------------------------------------------------+


Bass enters - Pre-Chorus ["...we'd never get far"]

G|----------|------------------------------------|
D|----------|------------------------------------|
A|-4-5-5-5/-|-2--2--0--0--0-4-5--5-------------0-|
D|----------|---------------------2-2-4-5--4-5---|

G|--------------------------------------|-------------|
D|---------------2--0--0----------------|-------------|
A|-2--2--0--0--0--0-------------------0-|-2--2--2--0~-|
D|-----------------------2-2-4-5--4-5---|-------------|


[Chorus]

G|----------------------------------|
D|----------------------------------|
A|------------------0-0-0-0-0-0-0-0-|
D|-0-0-0-0-0-0-0-0/-----------------|


[Verse]

G|-----------------------------------------------------|
D|-----------------------------------------------------|
A|-------------0--0--0--0-------------0--0--0--0/5-5-5-|
D|-0--0--0--0/------------0--0--0--0/------------------|


[Pre-Chorus 2]

G|---------------------------------------|
D|---------------2--0--------------------|
A|-2--2--0--0--0--0----------------------|
D|---------------------2-2-4-5--5h4p5-7--|

G|----------------------------------------|------------------|
D|------------2h4p2-0--0------------------|------------------|
A|-2--2--0--0-----------------------------|-2--2--0~----12\0-|
D|-----------------------2-2-4-5--5h7p5-7-|------------------|


[Verse]

G|-----------------------------------------------------|
D|-----------------------------------------------------|
A|-------------0--0--0--0-------------0--0--0--0/5-5-5-|
D|-0--0--0--0/------------0--0--0--0/------------------|


[Bridge]

G|--------------------------|---------|
D|--------------------------|---------|
A|---------1--1--1--3--3--3-|-1--1--1-|
D|-3--3--3------------------|---------|

G|--------------------------|---------|
D|--------------------------|---------|
A|---------1--1--1--3--3--3-|-/15\----|
D|-3--3--3------------------|---------|


[Verse]

G|-----------------------------------------------------|
D|-----------------------------------------------------|
A|-------------0--0--0--0-------------0--0--0--0/5-5-5-|
D|-0--0--0--0/------------0--0--0--0/------------------|


[Chorus 2]

[Verse]


************************************

/  slide up
\  slide down
h  hammer on
p  pull off
~  let ring

************************************
Suggest correction
comments
print report bad tab
guest
You may want to rate the tab now too:
select rating
Wanna post a correction for this tab? Suggest correction