Oops, an error
Loading. Please wait.

When Youre Gone Bass

version 1
version 1

Whole song

Interactive

11,097 views 6 this week
no commentswrite comment
1 2 3 4 5
x 4
add to favorites
launch autoscroll
font size
0
reset
guitar tuner
×
Best way to learn
"When Youre Gone"
Autoscroll
slow
fast
+/-
esc
set tempo
stop
Author
Difficulty
  follow
novice
When you’re gone
Bryan Adams

Standard Tuning

This isnt and exact copy of all the little details in the bass line but it sounds to me 
a good enough version if ur playing a cover in your band or something...enjoy

Intro
|----------|------------|-----------|-----------|
|----------|------------|-----------|-----------|
|-5--------|---8--------|--3--------|-----------|
|----------|------------|-----------|--3--------|

Verse
|-----------|-----------|-----------|-----------|
|---------3-|-5--5---55-|-----------|-----------|
|-5-5----5--|-----------|-3--3---33-|-3--3---33-| x3
|-----------|-----------|-----------|-----------|

|-----------|-----------|-----------|-----------|
|-----------|-----------|-----------|-----------|
|-5-5----55-|-1---1--11-|-10--10-10-|-----------|
|-----------|-----------|-----------|-3---3--33-|

Chorus (“baby when you’re gone”)
|---------|---------|----------|---------|
|------35-|-3--3-33-|----------|-5--5-55-|
|-5-5-5---|---------|-3-3-3-53-|---------| x3
|---------|---------|----------|---------|

|---------|---------|-------------|-------------|
|---------|---------|-------------|-------------|
|-5-5--55-|-1--1-11-|-10-10-10-10-|-10-10-10-10-|
|---------|---------|-------------|-------------|

Verse
Chorus
Guitar solo (rhythm same as verse)
Chorus

Last line:
|---------|---------|---------|
|---------|---------|-3~~~~~~-|
|-5-5--55-|-1--1-11-|---------|
|---------|---------|---------|
Suggest correction
comments
print report bad tab
guest
You may want to rate the tab now too:
select rating
Wanna post a correction for this tab? Suggest correction