Oops, an error
Loading. Please wait.

Nothing Holding Me Back Tab

version 1
version 1

Whole song

8,555 views 36 this week
1 commentread comment
1 2 3 4 5
excellent!
x 8
add to favorites
launch autoscroll
font size
0
reset
how to read this tab
guitar tuner
Autoscroll
slow
fast
+/-
esc
set tempo
stop
Help us to improve Ultimate-Guitar.com Take our survey!
×
Author
Difficulty
intermediate
pretty simple song when you get the picking right. I think this is the right tab but if 
you feel there are any changes to be made please feel free to do what you want. it is 
you playing it after all.  ;) ;) ;)

-------------------------------------------------------------

Intro:

E-------------------------------------------------------------------|
B---8-------3-------5--------1--------0-----------------------------|
G------0--------0--------0--------0----------0------------0---------|
D-----------------------------------------0-----0------0-----0------|
A---7-------2-------3--------0--------------------------------------|
E-------------------------------------3-----------------------------|



verses:
Note: the chords are pretty straight forward and this pattern is repeated.

---------------------------------------------------------------------|
---------3-----------------------------------------------------------|
--0--------------------0----------------0-------------0--------------|
-----0------0-------0-----0----0----0------0------0------0-----------|
--2--------------3---------------------------------------------------|
-------------------------------3-------------------------------------|


chorus
when I play the chorus I like to just strum out the chords and then pick the strings on 
the way up.

the chords are: Em C  G



Bridge chords:  C  G  D
Suggest correction
What's this?
You can suggest a correction to this tab. Community and Mods will review your correction and vote to approve or reject it.
comments
print report bad tab
1 comment total.
0 reply
AbaraneWoodhull 38 wrote on August 6 2013, 12:01 am

I think you made a great tab! I based this tab (which sounds very similar) from the chord chart given on another website.

Standard Tuning
Into/Verse/Pre-Chorus:
Em7 C G
|-----3--------------0-------------------------------------------------
|------------3--------------1-------0----------------------------------
|--------0------0-------0------0----------0-----------0----------------
|--------------------------------------0-----0-----0-----0-------------
|-----2------2-------3------0------------------------------------------
|-----------------------------------3----------------------------------

Em7 C G
|-----3--------------0-------------------------------------------------
|------------3--------------1-------0----------------------------------
|--------0------0-------0------0----------0-----------0----------------
|--------------------------------------0-----0-----0-----0-------------
|-----2------2-------3------0------------------------------------------
|-----------------------------------3----------------------------------
repeat 7x (for full intro/verse)

Chorus:
Em C G D/F#
|--------------------------------------------------------------------------
|----0--------0------1-----------------------0------3----------------------
|----------0------------0-----0-----0-----0-------------2-----0------------
|-------2------------------2-----------0-------------------0---------------
|----2---------------3-----------------------------------------------------
|-----------------------------------3---------------2----------------------

Em C G
|--------------------------------------------------------------------------
|------0--------0------1---------------------------------------------------
|------------0------------0-----0------0-----0------------0----------------
|---------2------------------2------------0-----0------0-----0-------------
|------2---------------3---------------------------------------------------
|--------------------------------------3-----------------------------------
repeat

Bridge:
C G D/F#
|--------------------------------------------------------------------------
|-----1--------1-----------------------------------------------------------
|--------0-----------0-----0----0-----0---------2-----2--------------------
|-----------2-----------2----------0-----0---------0-----0-----------------
|-----3--------------------------------------------------------------------
|-------------------------------3---------------2--------------------------

C G D/F#
|--------------------------------------------------------------------------
|-------1----------------------0---3------------3--------------------------
|----------0-----0----0-----0---------2-----2------2-----0-----------------
|-------------2----------0---------------0------------0--------------------
|-------3------------------------------------------------------------------
|---------------------3------------2---------------------------------------
repeat 3x, then back to Intro

It helps if the middle finger is rooted on Fret 2, String 4 (D) when changing between Em7 and C.

A~W

guest
You may want to rate the tab now too:
select rating
Please do not post tabs as comments. Select "correction" instead!