Oops, an error
Loading. Please wait.

Lets Stick Together bass

version 3
version 3

Whole song

Interactive

346 views 3 this week
no commentswrite comment
1 2 3 4 5
2 more votes to show rating
add to favorites
×
Save as Personal and add changes to this tab that will be seen only by you. Learn more ›
×
You can save this tab as Personal to edit and correct it or add notes. All changes will be seen only by you. Learn more »
launch autoscroll
font size
0
reset
guitar tuner
edit
Autoscroll
slow
fast
+/-
esc
set tempo
stop
Author
Let’s Stick Together
Single release by Bryan Ferry from the album of the same name in
1976. Reached number 4 in UK. Bass performance John Wetton.
Tab by bass50611. Think you will find my tab more or less as
Original unlike other tabs. Hope you like playing along to it.
Comments at bass254@btinternet.com 

Intro:
G|-----------------------------------------------------
D|-----------------------------------------------------
A|-0-0-0-0-0-0-0-0---0-0-0-0-0-0-0-0---0-0-0-0-0-0-0-0-
E|-----------------------------------------------------

G|-------------------------5-5-4-2----------5-5-4-2----------------
D|-----------------0-0-3-4----------0-0-3-4-----------------5-5----
A|0-0-2-0-3-0-2-0-----------------------------------0-0-3-4----3-4-
E|-----------------------------------------------------------------

G|----------------------------------------------------
D|---------5-5----------------------------------------
A|-0-0-3-4----3-4---7-7-7-7-7-7-9-7---5-5-5-5-5-5-7-5-
E|----------------------------------------------------

G|---------------------------------
D|---------5-5---------------------
A|-0-0-3-4----3-4--7-7-7-7-7-7-7-7-
E|---------------5-----------------

Verse 1: (Repeat Intro)

Verse 2:
G|-------------------------------------------------------------------
D|---------5-5--------------5-5--------------5-5--------------5-5----
A|-0-0-3-4----3-4---0-0-3-4----3-4---0-0-3-4----3-4---0-0-3-4----3-4-
E|-------------------------------------------------------------------

G|---------5-5-4-2----------5-5-4-2----------------------------------
D|-0-0-3-4----------0-0-3-4-----------------5-5--------------5-5-----
A|----------------------------------0-0-3-4----3-4---0-0-3-4----3-4--
E|-------------------------------------------------------------------

G|-----------------------------------------------------
D|---------------------------------------------5-5-----
A|-7-7-7-7-7-7-9-7---5-5-5-5-5-5-7-5---0-0-3-4----3-4--
E|---------------------------------------------------5-

G|-----------------
D|-----------------
A|-----------------
E|-0-0-0-0-0-0-0-0-

Instrumental:
G|-----------------------------------------------------
D|-----------------------------------------------------
A|-0-0-0-0-0-0-0-0---0-0-0-0-0-0-0-0---0-0-0-0-0-0-0-0-
E|-----------------------------------------------------

G|-------------------------5-5-4-2----------5-5-4-2----------------
D|-----------------0-0-3-4----------0-0-3-4-----------------5-5----
A|0-0-2-0-3-0-2-0-----------------------------------0-0-3-4----3-4-
E|-----------------------------------------------------------------

G|----------------------------------------------------
D|----------------------------------------------------
A|-0-0-0-0-0-0-4-5--7-7-7-7-7-7-9-7---5-5-5-5-5-5-7-5-
E|----------------------------------------------------

G|----------------------------------
D|---------5-5----------------------
A|-0-0-3-4----3-4-------------------
E|---------------5--0-0-0-0-0-0-0-0-

Repeat Verse 2:

Repeat Instrumental:

Final Verse:
G|-----------------------------------------------------
D|-----------------------------------------------------
A|-0-0-0-0-0-0-0-0---0-0-0-0-0-0-0-0---0-0-0-0-0-0-0-0-
E|-----------------------------------------------------

G|-------------------------5-5-4-2----------5-5-4-2----------------
D|-----------------0-0-3-4----------0-0-3-4-----------------5-5----
A|0-0-2-0-3-0-2-0-----------------------------------0-0-3-4----3-4-
E|-----------------------------------------------------------------

G|----------------------------------------------------
D|----------------------------------------------------
A|-0-0-0-0-0-0-4-5--7-7-7-7-7-7-9-7---5-5-5-5-5-5-7-5-
E|----------------------------------------------------
                        (End)
G|------------------------
D|---------5-5------------
A|-0-0-3-4----3-4---------
E|---------------5---5-5--


            
            
Suggest correction
Creating personal tab
Creating personal tab
You can edit any tab online and save it as your Personal.

You can edit, replace or remove any tab part or add personal notes – all changes will be seen only by you.

Personal tabs can be accessed anytime from any device, even offline.
Learn more »
Give kudos to tab author, rate the tab!
1 2 3 4 5
comments
print report bad tab
guest
You may want to rate the tab now too:
select rating
Wanna post a correction for this tab? Suggest correction