Oops, an error
Loading. Please wait.

And The Revelation Acoustic tab

519 views 3 this week
1 commentread comment
1 2 3 4 5
3 more votes to show rating
add to favorites
×
Save as Personal and add changes to this tab that will be seen only by you. Learn more ›
×
You can save this tab as Personal to edit and correct it or add notes. All changes will be seen only by you. Learn more »
launch autoscroll
font size
0
reset
how to read this tab
guitar tuner
edit
Autoscroll
slow
fast
+/-
esc
set tempo
stop
...And the Revelation
Bryan John Appleby
This is taken from Bryan's Chapel session and his Classroom session.

Standard tuning
capo 4

Intro (He continues to play the transition from Em to C/G through the 1st verse):
    C/G                                 Em                      C/G
e---0---0---0---0---0---0---0---0---0---0---0-------------------0---|
B---1---1---1---1---1---1---1---1---0---0---0-------------------1---|
G---0---0---0---0---0---0---0---0---0---0---0-------------------0---|
D---2---2---2---2---0---2---2---2---2---2---2---------------0---2---|
A---3---3---3---3---3---3---3---3---3---2---2-------------------3---|
E---3---3---3---3---3---3---3---3---3---0---0---0---2---3-------3---|


        C/G                 Em                                C/G  D  Am
I saw a white-haired child, staring out through hollow gray eyes
      C/G                         Em                          C/G  D  Am
I saw men that come to early ends, men who flicker, dim, and die 
        C/G                       Em                         C/G  D  Am
I saw a kerosene skyline from the suburbs of the city on a hill
            C/G                         Em                                   C/G  D  Am
I heard the clatter of the coin and the yawning of the few that have their fill


        C/G                   Em
And the sun, it is a blister, rising like the dead 
          D                              Am
I drag my shadow behind me, and I drag my body to the edge of my bed 
         C/G                         Em
With my palms pressed to my eyes, I pray this one last time 
          D                                        Am
If you’re someone else I might love you still, but as it is we’re done 


       C/G                     Em
Oh and you, you will not dig a hole in me
                   D
You will not chop down my tree 
                      Am
Or hold me under the water 
        C/G                    Em
No and you, you will not dig a hole in me 
                  D
You will not chop down my tree 
                     Am
Or hold me under the water
                  C/G
Hold me under the water
                  Em
Hold me under the water
                  D
Hold me under the water
                  Am
Hold me under the water

Outro (still singing "Hold me under the water"):
    Cmaj7                   Em                      
e----------------------------------------------------|
B---0--------0--------0-----0--------0--------0------|
G------0--------0--------0-----0--------0--------0---|
D---------2--------2--------------2--------2---------|
A---3-----------------------2------------------------|
E----------------------------------------------------|

    Dsus2                   Am
e---0--------0--------0-----0------------------------|
B------3--------3--------3--1------------------------|
G---------2--------2--------2------------------------|
D---0-----------------------2------------------------|
A---------------------------0------------------------|
E---------------------------0------------------------|
Suggest correction
Creating personal tab
Creating personal tab
You can edit any tab online and save it as your Personal.

You can edit, replace or remove any tab part or add personal notes – all changes will be seen only by you.

Personal tabs can be accessed anytime from any device, even offline.
Learn more »
Give kudos to tab author, rate the tab!
1 2 3 4 5
comments
print report bad tab
1 comment total.
0 reply
djweeks13 151 Jul 30, 2013 08:30 PM

Intro (this is also how C/G and Em are played in the first verse):
C/G Em
e---0---0---0---0---0---0---0---0---0---0---0-------------------|
B---1---1---1---1---1---1---1---1---0---0---0-------------------|
G---0---0---0---0---0---0---0---0---0---0---0-------------------|
D---2---2---2---2---0---2---2---2---2---2---2---------------0---|
A---3---3---3---3---3---3---3---3---3---2---2-------------------|
E---3---3---3---3---3---3---3---3---3---0---0---0---2---3-------|

C/G Em C/G D Am
I saw a white-haired child, staring out through hollow gray eyes
C/G Em C/G D Am
I saw men that come to early ends, men who flicker, dim, and die
C/G Em C/G D Am
I saw a kerosene skyline from the suburbs of the city on a hill
C/G Em C/G D Am
I heard the clatter of the coin and the yawning of the few that have their fill

C/G Em
And the sun, it is a blister, rising like the dead
D Am
I drag my shadow behind me, and I drag my body to the edge of my bed
C/G Em
With my palms pressed to my eyes, I pray this one last time
D Am
If you’re someone else I might love you still, but as it is we’re done

C/G Em
Oh and you, you will not dig a hole in me
D
You will not chop down my tree
Am
Or hold me under the water
C/G Em
No and you, you will not dig a hole in me
D
You will not chop down my tree
Am
Or hold me under the water
C/G
Hold me under the water
Em
Hold me under the water
D
Hold me under the water
Am
Hold me under the water

Outro (still singing "Hold me under the water"):
Cmaj7 Em
e----------------------------------------------------|
B---0--------0--------0-----0--------0--------0------|
G------0--------0--------0-----0--------0--------0---|
D---------2--------2--------------2--------2---------|
A---3-----------------------2------------------------|
E----------------------------------------------------|

Dsus2 Am
e---0--------0--------0-----0------------------------|
B------3--------3--------3--1------------------------|
G---------2--------2--------2------------------------|
D---0-----------------------2------------------------|
A---------------------------0------------------------|
E---------------------------0------------------------|

guest
You may want to rate the tab now too:
select rating
Wanna post a correction for this tab? Suggest correction