Oops, an error
Loading. Please wait.

God Gave Me You tab

version 3
version 3

Whole song

2,359 views 48 this week
no commentswrite comment
1 2 3 4 5
2 more votes to show rating
add to favorites
×
Save as Personal and add changes to this tab that will be seen only by you. Learn more ›
×
You can save this tab as Personal to edit and correct it or add notes. All changes will be seen only by you. Learn more »
launch autoscroll
font size
0
reset
how to read this tab
guitar tuner
edit
Autoscroll
slow
fast
+/-
esc
set tempo
stop
Author
Difficulty
God Gave Me You by Bryan White

Tabs written and arranged by Edwin-E (in YouTube)
Blog: http://guitarplucking.blogspot.com
Facebook Page: http://facebook.com/EdwinGuitar

Video Tutorial:  http://www.youtube.com/watch?v=ip5ZQ2j0FJQ


E|--------0--0--1--1h3--1--0------------------]
B|--------1-------------------3h5--3--1h3--1--]
G|--------0-------------------4-------2----2--]
D|-----2--2-----------------------------------]
A|--3-----3-------------------5-------3-------]
E|----------------------------3-------1-------]

E|--------0--0--1--1h3--1--0-------------]
B|--------1-------------------3h5--3--1--]
G|--------0-------------------4-------2--]
D|-----2--2------------------------------]
A|--3-----3-------------------5-------3--]
E|----------------------------3-------1--]

Intro: C G-F (2X)

Verse 1:

E|-----------------0-----------------------]
B|--------------1--1-----------------------]
G|--------0--0-----0--0--2-----------------]
D|--2--2--------------------2--0--0-----2--]
A|-----3--------------2--------------3-----]
E|--------------------------------5--------]
    C               G/B           Am7
For all the times I felt cheated, I complained


E|-----------------------]
B|-----------------------]
G|-----------------------]
D|--2--0-----0--0-----3--]
A|--------3--2-----3--3--]
E|-----------3--------1--]
                G          F
You know how I love to complain


E|--0--0--3--3--3--5--0-----------------0--]
B|-----1-----------------3--3--3--3--1--1--]
G|--------------------------------------0--]
D|--------------------------------------2--]
A|-----3--------2-----------------0-----0--]
E|-----------------------------------------]
     C            G/B                   Am7
For all the wrongs I repeated, though I was to blame


E|--------------0-----]
B|--3--3--1--3-----3--]
G|-----------------2--]
D|-----------------0--]
A|-----------2--------]
E|-----------3--------]
           G         D
I still cursed that rain
Refrain:

E|--------1--------------------------------]
B|--------1--1--1--1-----------------------]
G|--------2-----------2--0--0-----0--2-----]
D|--------3--------------------2--------2--]
A|-----3--3--------------------------------]
E|--1-----1-----------------0--------------]
F                         Em
 I didn't have a prayer, didn't have a clue


E|--------1-----------0-----------]
B|--------1--------1-----3--------]
G|--------2--2--2--------4--4--4--]
D|--------3-----------------5--5--]
A|-----3--3-----------------5--5--]
E|--1-----1--------------3--3--3--]
F                  G
 Then out of the blue

Chorus:

E|-----------0--0--0--0--3--0--0-----]
B|-----1--3--1--1-----------------3--]
G|--0-----------0--------------------]
D|-----------------------------------]
A|-----------3-----------------2-----]
E|-----------------------------3-----]
             C                     G
God gave me you to show me what's real


E|-----0-----------------------]
B|--3-----3--1--1--1--1--0-----]
G|-----------0-----0--------2--]
D|-----------2-----------------]
A|-----------0-----2--------3--]
E|-----------------3--------1--]
                Am7        G          F
There's more to life than just how I feel


E|--------------0--3--3--3--1--0--0-----]
B|--------1--3--1--------------------3--]
G|--0--0--------------------------------]
D|--------------------------------------]
A|--------------3-----------------2-----]
E|--------------------------------3-----]
                  C                        G
And all that I'm worth is right before my eyes


E|--------------0-----------------------2--]
B|--0--0--1--3-----1--1--1--0--1-----3--3--]
G|--------------------------------2-----2--]
D|--------------------------------0--------]
A|--------------0-----------2--------------]
E|--------------------------3--------------]
                    Am7            G          D
And all that I live for though I didn't know why


E|-----0--------3---------------]
B|--1-----1--1--0-----1--0--1---]
G|--------2--2--0--0--------0---]
D|-----------3--0-----------2---]
A|--------3--3--2-----------3---]
E|--------1--1--3---------------]
      F                       G
Now I do, 'cause God gave me you

E|--0--0--1--1h3--1--0------------------]
B|--1-------------------3h5--3--1h3--1--]
G|--0-------------------4-------2----2--]
D|--2-----------------------------------]
A|--3-------------------5-------3-------]
E|----------------------3-------1-------]
C-G-F

Verse 2:  (Follow TABs from Verse 1)

    C               G/B                               Am7
For all the times I wore myself pity like a favorite shirt
             G          F
All wrapped up in that hurt
    C                    G/B
For every glass I saw, I saw half empty
       Am7                     G          D
Now it overflows like a river through my soul

Refrain:
F                              Em
  From every doubt I had, I’m finally free
F             G
  I truly believe

Chorus:
             C                     G
God gave me you to show me what's real
                Am7        G          F
There's more to life than just how I feel
                 C                         G
And all that I'm worth is right before my eyes
                    Am7           G           D
And all that I live for though I didn't know why

E|-----0--------3--0-----------]
B|--1--------1--0-----3--0--1--]
G|--------2--2--0-----------0--]
D|--------3--3--0-----------2--]
A|--------3--3--2-----------3--]
E|--------1--1--3--------------]
      F  G                    C
Now I do, 'cause God gave me you

Bridge:

E|--0--1--1h3--1--0--------]
B|----------------1--1--1--]
G|----------------2--------]
D|----------------3--------]
A|-------------------------]
E|-------------------------]                 F
                  F   
In your arms I'm someone new
E|--0--1--1h3--1--0--------]
B|----------------1--1--1--]
G|----------------2-----1--]
D|----------------3-----3--]
A|-------------------------]
E|-------------------------]
                  Fm
With ever tender kiss from you


E|--------------]
B|--------1--1--]
G|--1--0--------]
D|--------------]
A|-----3--------]
E|--------------]
     C
Oh I must confess


E|-----------3--]
B|-----3--3--0--]
G|--0--------0--]
D|-----------0--]
A|--2--------2--]
E|--3--------3--]
 G
I've been blessed

Chorus 2:

E|--------0--2--2--5--2--2--0--]
B|-----3-----3--------------2--]
G|--2--------2--------------2--]
D|-----------0--------------2--]
A|-----------------------0--0--]
E|-----------------------------]
             D                     A
God gave me you to show me what's real


E|--0--2--0--------------------3--]
B|-----------3--3--2--3--2--0--0--]
G|-----------------2-----------0--]
D|-----------4-----2-----------0--]
A|-----------2-----0--------2--2--]
E|--------------------------3--3--]
                Bm7        A          G
There's more to life than just how I feel


E|--------0--2--5--5--5--5--3--2--2--0--]
B|-----3-----3-----------------------2--]
G|--2--------2-----------------------2--]
D|-----------0-----------------------2--]
A|--------------------------------0--0--]
E|--------------------------------------]
                  D                        A
And all that I'm worth is right before my eyes


E|-----------0--2--------------------]
B|--2--2--3--------3--3--3--2--3--0--]
G|--------------------------2-----1--]
D|--------------------------2--------]
A|--------------2-----------0-----2--]
E|--------------------------------0--]
                    Bm7                       E
And all that I live for though I didn't know why


E|-----2-----0-----2--0--------]
B|--3-----3--2--2--------2--3--]
G|-----------2--------------2--]
D|-----------2--------------0--]
A|--------2--0-----------------]
E|--------3--------------------]
      G  A                    D
Now I do, 'cause God gave me you.


E|--2--3--3/5--3--0h2--0-------------------------------2--]
B|------------------------3h5--3--3-----------------3-----]
G|------------------------4----------4-----2-----2--------]
D|--------------------------------------5--0--0-----------]
A|----------------0---------------------------------------]
E|------------------------3-------------------------------]

Outro: D A G
       

Suggest correction
Creating personal tab
Creating personal tab
You can edit any tab online and save it as your Personal.

You can edit, replace or remove any tab part or add personal notes – all changes will be seen only by you.

Personal tabs can be accessed anytime from any device, even offline.
Learn more »
Give kudos to tab author, rate the tab!
1 2 3 4 5
comments
print report bad tab
guest
You may want to rate the tab now too:
select rating
Wanna post a correction for this tab? Suggest correction