Oops, an error
Loading. Please wait.

Paper Hearts intro tab

by BTS
12,865 views 216 this week
3 commentsread comments
1 2 3 4 5
x 18
add to favorites
×
Save as Personal and add changes to this tab that will be seen only by you. Learn more ›
×
You can save this tab as Personal to edit and correct it or add notes. All changes will be seen only by you. Learn more »
launch autoscroll
font size
0
reset
how to read this tab
guitar tuner
edit
Autoscroll
slow
fast
+/-
esc
set tempo
stop
Capo 4

[Intro/Verse]
e|---------------------------------------------------------------------------|
B|-------0-------0------0----------------------------------------------------|
G|-----0-------0------0---0--------------------------------------------------|
D|---2-------2------2-------2------0-4----0-4h5---5-4-0----------------------|
A|-3-----------------------------2------2------------------------------------| x4
E|-----------------------------3---------------------------------------------|

[Chorus]
e|---------------------------------------------------------------------------|
B|---------------------------------------------------------------------------|
G|-------0------------4------------0------------2-0--------------------------|
D|-----2---2--------4---4--------2---2--------0------------------------------|
A|---3-------3----2-------2----2-------2----2--------------------------------| x3
E|-0------------2------------0------------3----------------------------------|

e|---------------------------------------------------------------------------|
B|---------------------------------------------------------------------------|
G|-------0------------2-0---------0------------2-0---------------------------|
D|-----2---2--------0-----2-----2---2--------0-------------------------------|
A|---3-------3----2-----------2-------2----2---------------------------------|
E|-0------------2------------0------------3----------------------------------|


************************************

| h   Hammer-on

************************************

            
            
Suggest correction
Creating personal tab
Creating personal tab
You can edit any tab online and save it as your Personal.

You can edit, replace or remove any tab part or add personal notes – all changes will be seen only by you.

Personal tabs can be accessed anytime from any device, even offline.
Learn more »
comments
print report bad tab
3 comments total.
0 reply
xkuromigirl 10 May 20, 2016 01:44 PM

This is a Tori Kelly song.

0 reply
notspaulin 10 Jun 19, 2017 12:55 AM

Thank you! this is so helpful but I don't get the chorus part haha but this is perfect

guest
You may want to rate the tab now too:
select rating
Wanna post a correction for this tab? Suggest correction