Oops, an error
Loading. Please wait.

Tear Jerky Tab

164 views 1 this week
no commentswrite comment
1 2 3 4 5
3 more votes to show rating
add to favorites
launch autoscroll
font size
0
reset
how to read this tab
guitar tuner
Autoscroll
slow
fast
+/-
esc
set tempo
stop
Help us to improve Ultimate-Guitar.com Take our survey!
×
Author
Intro: Play lick 3 times:

E|-------------------------------------|
B|-------------------------------------|
G|-------------------------------------|
D|-6-6-------------6-6-6-(h)7-6--------|
A|-----7-7-7-7-7-7--------------9-7----|
E|-------------------------------------|

then:

E|----------------------------------------------|
B|----------------------------------------------|
G|-13-(s)11-11-11-(s)9-9-9-(s)8-8-8-8-8-8-8-8-8-|
D|----------------------------------------------|
A|-11-(s)9--9--9--(s)7-7-7-(s)6-6-6-6-6-6-6-6-6-|
E|----------------------------------------------|


E|----------------------------------------------|
B|----------------------------------------------|
G|-13-(s)11-11-11-(s)9-9-9-(s)8-8-(s)9-9-9-9-9--|
D|----------------------------------------------|
A|-11-(s)9--9--9--(s)7-7-7-(s)6-6-(s)7-7-7-7-7--|
E|----------------------------------------------|


Horn line: Clean Ska

| E / / / | B / B7 / | E / / / | B / B7 / | E / / / |

| B / B7 / |

E|-----5-------5-------5-------5--------7-------7---|
B|-------5-------5-------5-------5--------7-------7-|
G|--------------------------------------------------|
D|-7-7-----7-7-----7-7-----7-7------9-9-----9-9-----|
A|--------------------------------------------------|
E|--------------------------------------------------|


E|----------------------|
B|-10-10-10-10-(p)9-----|
G|------------------9-9-|
D|----------------------|
A|----------------------|
E|----------------------|


Verse
[E] Don't you shut that door [B] don't you leave

[B7] so soon [E] Wanna know where I've been

[B] well I'll tell [B7] you the truth

[E] I've seen it all before [B] and none of this [B7] is


E|-----5-------5-------5-------5--------7-------7---|
B|-------5-------5-------5-------5--------7-------7-|
G|--------------------------------------------------|
D|-7-7-----7-7-----7-7-----7-7------9-9-----9-9-----|
A|--------------------------------------------------|
E|--------------------------------------------------|

new to me none of this is new to me

E|----------------------|
B|-10-10-10-10-(p)9-----|
G|------------------9-9-|
D|----------------------|
A|----------------------|
E|----------------------|

You said that thinngs had changed
and everything was alright
you would wish I was cool
and I'd wish you were nice
behind that innocent face
filled with guilty delights for me
filled with guilty delights for me

Chorus:


E|----------------------------------|
B|----------------------------------|
G|------6-6-----7-7---2-2-2-2-------|
D|--------------------2-2-2-2-------|
A|------4-4-----5-5---0-0-0-0-------|
E|-0-0------x-x-----x---------4-2-0-|

                    Such an innocent

E|----------------------------------|
B|----------------------------------|
G|------6-6-----7-7---2-2-2-2-------|
D|--------------------2-2-2-2-------|
A|------4-4-----5-5---0-0-0-0-------|
E|-0-0------x-x-----x---------4-2-0-|

  lie              Such an innocent

E|--------------------------------------------------|
B|--------------------------------------------------|
G|------6-6-----7-7---2-2-2-2-----------------------|
D|--------------------2-2-2-2---------------1-1-1-1-|
A|------4-4-----5-5---0-0-0-0---0-1-2-2-2-2---------|
E|-0-0------x-x-----x---------4---------------------|

 mind            you get caught when you try to lie

E|-------------------------------------------------|
A|-------------------------------------------------|
G|-------------------------------------------------|
D|-------------------------------------------------|
A|-4-4-4-4-2-2-2-2---------4-4-4-4-----------------|
E|-----------------5-5-5-5---------7-7-7-7-5-5-5-5-|

Your whole life has been gentrified do you know
what I mean?

You had secrets to hide
you think I'd never find out
you said your lips were sealed
and then you'd open your mouth
this ain't a question of guilt
this is a question of doubt in you
this is a question of doubt in you

You want the world on a platter
want your friends on a string
you want them all to matter
want them down on their knees
they'll give you what you've dreamed of
but it's not what you need
no it's not what you need
Suggest correction
Give kudos to tab author, rate the tab!
1 2 3 4 5
comments
print report bad tab
guest
You may want to rate the tab now too:
select rating
Wanna post a correction for this tab? Suggest correction