Oops, an error
Loading. Please wait.

Drunk Without Drinking Tab

338 views 3 this week
1 commentread comment
1 2 3 4 5
please rate
add to favorites
launch autoscroll
font size
0
reset
how to read this tab
guitar tuner
Autoscroll
slow
fast
+/-
esc
set tempo
stop
Help us to improve Ultimate-Guitar.com Take our survey!
×
Author
Difficulty
novice
-------------------------------------------------------------------------------
                             DRUNK WITHOUT DRINKING - Buck 65
-------------------------------------------------------------------------------
Tabbed by: Wally Funk
Email: preshrunk@bigpond.com

Tuning: Standard

e|----------------------------|-----------------------------|
B|----------------------------|-----------------------------|
G|----------------------------|-----------------------------|
D|----------0h2---------------|----------0h2----------------|
A|----0-1--------3--1-----5---|----0-1--------3--1----------|
E|--3-------------------3-----|--3-------------------3--3---|

e|-------------------------------------------------------------|-----|
B|-------------------------------------------------------------|-----|
G|-------------------------------------------------------------|-----|
D|----------0h2------------------------------------------------|-----|
A|----0-1--------3--1-----5----5---------------------5---5---5-|---5-|
E|--3-------------------3----3----1-1-1-1-1-1-1-1--3---3---3---|-3---|

e|-------------------------------------|
B|-------------------------------------|
G|-------------------------------------|
D|----8---8---8---8--------------------|
A|--6---6---6---6------5---5---5---5---|
E|-------------------3---3---3---3-----|

************************************

| h   hammer-on

************************************
Suggest correction
Give kudos to tab author, rate the tab!
1 2 3 4 5
comments
print report bad tab
1 comment total.
0 reply
mrworm 170 wrote on February 3 2011, 07:13 am

This is The Suffering Machine.

Slight correction, there are a couple of notes missing. Open G and open D:


e|-----------------------------|------------------------------|
B|-----------------------------|------------------------------|
G|-------------0---------------|-------------0----------------|
D|----------0h2-0--------------|----------0h2-0---------------|
A|----0-1---------3--1-----5---|----0-1---------3--1----------|
E|--3--------------------3-----|--3--------------------3--3---|

...and so on.

Also, in the verse:


e|-------------------------------------|
B|-------------------------------------|
G|-------------------------------------|
D|----7---7---7---7--------------------|
A|--6---6---6---6------5---5---5---5---|
E|-------------------3---3---3---3-----|


Otherwise very good. Thank you.

guest
You may want to rate the tab now too:
select rating
Please do not post tabs as comments. Select "correction" instead!