Oops, an error
Loading. Please wait.

Le 65Isme Tab

202 views 1 this week
no commentswrite comment
1 2 3 4 5
please rate
add to favorites
launch autoscroll
font size
0
reset
how to read this tab
guitar tuner
Tab Pro tools
  • play this tab
  • loop segment
  • change instrument
  • show fretboard
  • metronome
×
Best way to learn
"Le 65isme"
Autoscroll
slow
fast
+/-
esc
set tempo
stop
Contributor
Difficulty
intermediate
Le 65isme - Buck 65

Tabbed by S. Smith for Ultimate Guitar

Hope this all makes sense, I can't for the life of me figure out which note is played 
C# on the e string.
I'm not entirely sure about guitar 2's pasrt which runs alongside the "This one's for 
bit, but I had a go.
The bass notes are double notes, e.g. two F#'s on the second fret. The very final note 
guitar 1 in the ending is
D string, eleventh fret.

Intro


Guitar 1

|--------------------------3------9--|
|------7-----------------------------|
|-------6------4-(5)b6---------------|
|-4-4-7--7-4~------------------------|
|------------------------------------|
|------------------------------------|

Bass

|--------------|               |--------------|
|--------------|               |--------------|
|--------------|               |--------------|
|-22-22-00-55--| x3            |-00-00-00-55--|


"This one's for rebels..."

Guitar 1

|--------------------------3------9--|
|------7-----------------------------|
|-------6------4-(5)b6---------------|
|-4-4-7--7-4~------------------------|
|------------------------------------|
|------------------------------------|

Guitar 2

|--------------------------------------------------------------------|
|--------------------------------------------------------------------|
|---4------------------4----------------4----------------------------|
|--4-4----------------4-4--------------4-4---------------------------|
|-4---4-2-4-2-0-2-2--4---4-2-4-2-0----4---4-2-4-2-0-2-4--------------|
|----------------------------------2--------------------00-00-00-55--|

Bass                                                 "Sex, cinema, politique"

|--------------|                                      |--------------|
|--------------|                                      |--------------|
|--------------|                                      |--------------|
|-22-22-00-55--| x3                                   |-00-00-00-55--|


Verse


No guitar.

Bass                   "Sex, cinema, politique"

|--------------|       |--------------|
|--------------|       |--------------|
|--------------|       |--------------|
|-22-22-00-55--| x3    |-00-00-00-55--|


Break pt. I      (x2)

"This one's for rebels..."

Guitar 2

|--------------------------------------------------------------------|
|--------------------------------------------------------------------|
|---4------------------4----------------4----------------------------|
|--4-4----------------4-4--------------4-4---------------------------|
|-4---4-2-4-2-0-2-2--4---4-2-4-2-0----4---4-2-4-2-0-2-4--------------|
|----------------------------------2--------------------00-00-00-55--|

Bass                                                 "Sex, cinema, politique"

|--------------|                                      |--------------|
|--------------|                                      |--------------|
|--------------|                                      |--------------|
|-22-22-00-55--| x3                                   |-00-00-00-55--|


Break pt. II


Guitar 1

|--------------------------3-------|
|------7---------------------------|
|-------6----2-4-(5)b6-------------|
|-4-4-7--7-4~----------------------|
|----------------------------------|
|----------------------------------|

Guitar 2

|--------------------------------------------------------|
|--------------------------------------------------------|
|---4------------------4----------------4----------------|
|--4-4----------------4-4--------------4-4---------------|
|-4---4-2-4-2-0-2-2--4---4-2-4-2-0----4---4-2-4-2-0-2-4--|
|----------------------------------2---------------------|

Bass

|--------------|
|--------------|
|--------------|
|-22-22-00-55--|

Break pt. III


Guitar 1

|--------------|
|--------------|
|--------------|
|-44-44-44-44--|
|-44-44-44-44--|
|-22-22-22-22--|


Bass

|--------------|
|--------------|
|--------------|
|-22-22-22-22--|

Both play through twice, then guitar 2 joins (x26)

|-----------------------------|
|-----------------------------|
|-11-11--11-11---------11-11--|
|-11-11--11-11--12-12--11-11--|
|-9--9---9--9---9--9---9--9---|
|-----------------------------|

Ending


Guitar 1

|----------------------------3------9---------------|
|------7--------------------------------------------|
|-------6------4-(5)b6------------------------------|
|-4-4-7--7-4~-----------------------------------11--|
|---------------------------------------------------|
|---------------------------------------------------|

Bass

|--------------|                   |-----------------|
|--------------|                   |-----------------|
|--------------|                   |-----------------|
|-22-22-00-55--| x3                |-00-00-00-55-22--|
comments
We did not receive enough feedback on this tab! Please rate:
print report bad tab
1 2 3 4 5
I want to post or [tab]
guest
You may want to rate the tab now too:
select rating
Please do not post tabs as comments. Select "correction" instead!