Oops, an error
Loading. Please wait.

Abilene bass

37 views 3 this week
no commentswrite comment
1 2 3 4 5
3 more votes to show rating
add to favorites
×
Save as Personal and add changes to this tab that will be seen only by you. Learn more ›
×
You can save this tab as Personal to edit and correct it or add notes. All changes will be seen only by you. Learn more »
launch autoscroll
font size
0
reset
guitar tuner
edit
Autoscroll
slow
fast
+/-
esc
set tempo
stop
Tabbed by: 6METAL6BASSIST6
E-mail: petergriffinav@gmail.com

Tuning: EADG

G|------------------------------------------------------------------------------------------------|
D|------------------------7-----------------------------------------------7-----------------------|
A|5-----------------------------------------------5-----------------------------------------------|
E|------------------------------------5-----------------------------------------------5-----------|

0:07

G|------------------------------------------------------------------------------------------------|
D|------------------------7-----------------------4-----------------------------------------------|
A|5-----------------------------------------------------------------------4-----------------------|
E|------------------------------------------------------------------------------------------------|

G|------------------------------------------------------------------------------------------------|
D|5-----------------------------------------------------------------------------------------------|
A|------------------------5-----------------------5-----------------------------------5-----------|
E|------------------------------------------------------------------------5-----------------------|

0:20

G|------------------------------------------------------------------------------------------------|
D|------------------------------------------------------------------------------------------------|
A|7-----------------------------------------------------------------------7-----------------------|
E|------------------------7-----------------------5-----------------------------------5-----------|

G|------------------------------------------------------------------------------------------------|
D|------------------------------------------------------------------------------------------------|
A|5-----------------------------------------------5-----------------------------------------------|
E|------------------------3-----------------------------------------------5-----------------------|

0:33

G|------------------------------------------------------------------------------------------------|
D|------------------------------------------------4-----------------------------------------------|
A|5-----------------------------------5-----------------------------------4-----------------------|
E|------------------------5-----------------------------------------------------------------------|

G|------------------------------------------------------------------------------------------------|
D|5-----------------------------------------------------------------------------------------------|
A|------------------------5-----------------------5-----------------------------------5-----------|
E|------------------------------------------------------------------------5-----------------------|

0:46

G|------------------------------------------------------------------------------------------------|
D|------------------------------------------------------------------------------------------------|
A|7-----------------------------------------------------------------------7-----------------------|
E|------------------------7-----------------------5-----------------------------------5-----------|

G|------------------------------------------------------------------------------------------------|
D|------------------------------------------------------------------------------------------------|
A|5-----------------------------------------------5-----------------------------------4-----------|
E|------------------------3-----------------------------------------------5-----------------------|

0:58

G|------------------------------------------------------------------------------------------------|
D|------------------------7-----------------------4-----------------------------------4-----------|
A|5-----------------------------------------------------------------------4-----------------------|
E|------------------------------------------------------------------------------------------------|

G|------------------------------------------------------------------------------------------------|
D|5-----------------------------------------------------------------------------------------------|
A|------------------------5-----------------------5-----------------------------------5-----------|
E|------------------------------------------------------------------------5-----------------------|

1:11

G|------------------------------------------------------------------------------------------------|
D|------------------------------------------------------------------------------------------------|
A|7-----------------------------------------------------------------------------------4-----------|
E|------------------------7-----------------------5-----------------------7-----------------------|

G|------------------------------------------------------------------------------------------------|
D|------------------------------------------------------------------------------------------------|
A|5-----------------------------------------------5-----------------------5-----------6-----------|
E|------------------------3-----------------------------------------------------------------------|

1:24

G|------------------------------------------------------------------------------------------------|
D|------------6-----------9-----------6-----------7-----------5-----------4-----------------------|
A|7-----------------------------------------------------------------------------------7-----------|
E|------------------------------------------------------------------------------------------------|

G|------------------------------------------------------------------------------------------------|
D|------------------------5-------------------5---------------------------------------------------|
A|5-------------------5---------------------------5-------------------5---------------4-----------|
E|------------------------------------------------------------------------5-----------------------|

1:37

G|------------------------------------------------------------------------------------------------|
D|------------------------7-----------------------4-----------------------------------4-----------|
A|5-----------------------------------------------------------------------4-----------------------|
E|------------------------------------------------------------------------------------------------|

G|------------------------------------------------------------------------------------------------|
D|5-----------------------------------------------------------------------------------------------|
A|------------------------5-----------------------5-----------------------------------5-----------|
E|------------------------------------------------------------------------5-----------------------|

1:50

G|------------------------------------------------------------------------------------------------|
D|------------------------------------------------------------------------------------------------|
A|7-----------------------------------------------------------------------7-----------------------|
E|------------------------7-----------------------5-----------------------------------5-----------|

G|------------------------------------------------------------------------------------------------|
D|------------------------------------------------------------------------------------------------|
A|5-----------------------------------------------5-----------------------------------4-----------|
E|------------------------3-----------------------------------------------5-----------------------|

2:03

G|------------------------------------------------------------------------------------------------|
D|------------------------------------------------4-----------------------------------4-----------|
A|5-----------------------------------------------------------------------4-----------------------|
E|------------------------5-----------------------------------------------------------------------|

G|------------------------------------------------------------------------------------------------|
D|5-----------------------------------------------------------------------------------------------|
A|------------------------5-----------------------5-----------------------5-----------6-----------|
E|------------------------------------------------------------------------------------------------|

2:16

G|------------------------------------------------------------------------------------------------|
D|------------------------------------------------------------------------------------------------|
A|7-----------------------------------------------------------------------7-----------------------|
E|------------------------7-----------------------5-----------------------------------5-----------|

G|------------------------------------------------------------------------------------------------|
D|------------------------------------------------------------------------------------------------|
A|5-----------------------------------------------5-----------------------5-----------6-----------|
E|------------------------3-----------------------------------------------------------------------|

2:29

G|------------------------------------------------------------------------------------------------|
D|------------------------------------------------------------------------------------------------|
A|7-----------------------------------------------------------------------------------4-----------|
E|------------------------7-----------------------5-----------------------7-----------------------|

G|------------------------------------------------------------------------------|
D|------------------------------------------------------------------------------|
A|5-----------------------------------------------5-------------------------5---|
E|------------------------3-----------------------------------5-----------------|

            
            
Suggest correction
Creating personal tab
Creating personal tab
You can edit any tab online and save it as your Personal.

You can edit, replace or remove any tab part or add personal notes – all changes will be seen only by you.

Personal tabs can be accessed anytime from any device, even offline.
Learn more »
Give kudos to tab author, rate the tab!
1 2 3 4 5
comments
print report bad tab
guest
You may want to rate the tab now too:
select rating
Wanna post a correction for this tab? Suggest correction