Oops, an error
Loading. Please wait.

Only You Can Break My Heart bass

208 views 3 this week
no commentswrite comment
1 2 3 4 5
3 more votes to show rating
add to favorites
×
Save as Personal and add changes to this tab that will be seen only by you. Learn more ›
×
You can save this tab as Personal to edit and correct it or add notes. All changes will be seen only by you. Learn more »
launch autoscroll
font size
0
reset
guitar tuner
edit
Autoscroll
slow
fast
+/-
esc
set tempo
stop
Tabbed Tabbed by: 6METAL6BASSIST6
E-mail: petergriffinav@gmail.com

Tuning: EADG

0:05

G|------------------------------------------------------------------------------------------------|
D|------------------------------------------------------------------------------------3-----------|
A|4-----------------------------------------------4-----------4-----------6-----------------------|
E|------------------------4-----------------------------------------------------------------------|

G|------------------------------------------------------------------------------------------------|
D|4-----------------------------------------------4-----------------------------------4-----------|
A|------------------------4-----------------------------------------------4-----------------------|
E|------------------------------------------------------------------------------------------------|

0:13

G|------------------------------------------------------------------------------------------------|
D|6-----------------------------------------------6-----------------------------------------------|
A|------------------------6-----------------------------------------------1-----------3-----------|
E|------------------------------------------------------------4-----------------------------------|

G|------------------------------------------------------------------------------------------------|
D|------------------------------------------------------------------------------------------------|
A|4-----------------------------------------------4-----------------------1-----------3-----------|
E|------------------------4-----------------------------------4-----------------------------------|

0:29

G|------------------------------------------------------------------------------------------------|
D|------------------------------------------------------------------------------------3-----------|
A|4-----------------------------------------------4-----------4-----------6-----------------------|
E|------------------------4-----------------------------------------------------------------------|

G|------------------------------------------------------------------------------------------------|
D|4-----------------------------------------------4-----------4-----------------------------------|
A|------------------------4-----------------------------------------------------------------------|
E|------------------------------------------------------------------------------------------------|

0:41

G|------------------------------------------------------------------------------------------------|
D|------------------------------------------------------------------------------------------------|
A|4-----------------------3-----------1-----------------------------------1-----------3-----------|
E|------------------------------------------------4-----------------------------------------------|

G|------------------------------------------------------------------------------------------------|
D|------------------------4-----------------------------------------------------------------------|
A|4-----------------------------------------------4-----------4-----------------------------------|
E|------------------------------------------------------------------------------------------------|

0:53

G|------------------------------------------------------------------------------------------------|
D|------------------------------------------------------------------------------------3-----------|
A|4-----------------------------------------------4-----------4-----------6-----------------------|
E|------------------------4-----------------------------------------------------------------------|

G|------------------------------------------------------------------------------------------------|
D|4-----------------------------------------------4-----------4-----------3-----------------------|
A|------------------------4-----------------------------------------------------------6-----------|
E|------------------------------------------------------------------------------------------------|

1:04

G|------------------------------------------------------------------------------------------------|
D|------------------------------------------------------------------------------------------------|
A|4-----------------------3-----------1-----------------------------------1-----------3-----------|
E|------------------------------------------------4-----------------------------------------------|

G|------------------------------------------------------------------------------------------------|
D|------------------------4-----------------------------------------------------------------------|
A|4-----------------------------------------------4-----------4-----------------------------------|
E|------------------------------------------------------------------------------------------------|

1:16

G|------------------------------------------------------------------------------------------------|
D|------------------------------------------------------------------------------------3-----------|
A|4-----------------------------------------------4-----------4-----------6-----------------------|
E|------------------------4-----------------------------------------------------------------------|

G|------------------------------------------------------------------------------------------------|
D|4-----------------------------------------------4-----------------------------------4-----------|
A|------------------------4-----------------------------------------------4-----------------------|
E|------------------------------------------------------------------------------------------------|

1:28

G|------------------------------------------------------------------------------------------------|
D|6-----------------------------------------------6-----------------------------------------------|
A|------------------------6-----------------------------------------------1-----------3-----------|
E|------------------------------------------------------------4-----------------------------------|

G|------------------------------------------------------------------------------------------------|
D|------------------------------------------------------------------------------------------------|
A|4-----------------------------------------------4-----------------------1-----------3-----------|
E|------------------------4-----------------------------------4-----------------------------------|

1:39

G|------------------------------------------------------------------------------------------------|
D|------------------------------------------------------------------------------------3-----------|
A|4-----------------------------------------------4-----------4-----------6-----------------------|
E|------------------------4-----------------------------------------------------------------------|

G|------------------------------------------------------------------------------------------------|
D|4-----------------------------------------------4-----------4-----------------------------------|
A|------------------------4-----------------------------------------------------------------------|
E|------------------------------------------------------------------------------------------------|

1:51

G|------------------------------------------------------------------------------------------------|
D|------------------------------------------------------------------------------------------------|
A|4-----------------------3-----------1-----------------------------------1-----------3-----------|
E|------------------------------------------------4-----------------------------------------------|

G|------------------------------------------------------------------------------------------------|
D|------------------------4-----------------------------------------------------------------------|
A|4-----------------------------------------------4-----------4-----------------------------------|
E|------------------------------------------------------------------------------------------------|

2:03

G|------------------------------------------------------------------------------------------------|
D|------------------------------------------------------------------------------------------------|
A|4-----------------------3-----------1-----------------------------------1-----------3-----------|
E|------------------------------------------------4-----------------------------------------------|

G|----------------------------------------------------------------------------|
D|------------------------4---------------------------------------------------|
A|4-----------------------------------------------4-----------------------4---|
E|----------------------------------------------------------------------------|

            
            
Suggest correction
Creating personal tab
Creating personal tab
You can edit any tab online and save it as your Personal.

You can edit, replace or remove any tab part or add personal notes – all changes will be seen only by you.

Personal tabs can be accessed anytime from any device, even offline.
Learn more »
Give kudos to tab author, rate the tab!
1 2 3 4 5
comments
print report bad tab
guest
You may want to rate the tab now too:
select rating
Wanna post a correction for this tab? Suggest correction