Oops, an error
Loading. Please wait.

Crazy Bitch tab

version 2
version 2

Whole song

Interactive

119,210 views 54 this week
17 commentsread comments
1 2 3 4 5
x 29
add to favorites
×
Save as Personal and add changes to this tab that will be seen only by you. Learn more ›
×
You can save this tab as Personal to edit and correct it or add notes. All changes will be seen only by you. Learn more »
launch autoscroll
font size
0
reset
how to read this tab
guitar tuner
backing track
0:00
0:00
edit
Autoscroll
slow
fast
+/-
esc
set tempo
stop
Author
Difficulty
intermediate
[Intro]

e||--------------------------------------------|
B||-4-4-4-4--4-4-x-x-4-4-x-4-9b(10)(9)-7-9-7~--|
G||-4-4-4-4--4-4-x-x-4-4-x-4-9b(10)(9)-7-9-7~--|
D||-4-4-4-4--4-4-x-x-4-4-x-4-------------------|
A||--------------------------------------------|
E||--------------------------------------------|

e||------------------------------------------|
B||-4-4-x-x-4-4-x-4--------7-4~--------------|
G||-4-4-x-x-4-4-x-4--------7-4~--------------|
D||-4-4-x-x-4-4-x-4--2h4/7-------------------|
A||------------------------------------------|
E||------------------------------------------|

e||--------------------------------------------|
B||-4-4-4-4--4-4-x-x-4-4-x-4-9b(10)(9)-7-9-7~--|
G||-4-4-4-4--4-4-x-x-4-4-x-4-9b(10)(9)-7-9-7~--|
D||-4-4-4-4--4-4-x-x-4-4-x-4-------------------|
A||--------------------------------------------|
E||--------------------------------------------|

e||-----------------------------------|
B||-----------------------------------|
G||-----------------------------------|
D||-----------------------------------|
A||----------------------5------------|
E||-0-4--0-5-5--0-6-6--0---7~---------|


[Verse]

using wah
e||---------------------------------------|
B||---------------------------------------|
G||---------------------------------------|
D||-----------------x-x-x-----------------|
A||----------5------x-x-x-----------------|
E||-5h7-7-7-7--5h7~-x-x-x-----------------|

e||-----------------------------------------|
B||-----------------------------------------|
G||-----------------------------------------|
D||-x-x-----------------x-x-x---------------|
A||-x-x----------5------x-x-x---------------|
E||-x-x-5h7-7-7-7--5-0--x-x-x---------------|

e||-----------------------------------------|
B||-----------------------------------------|
G||-----------------------------------------|
D||-x-x-----------------x-x-x---------------|
A||-x-x----------5------x-x-x---------------|
E||-x-x-5h7-7-7-7--5h7~-x-x-x---------------|

e||-------------------------------------------------|
B||-------------------------------------------------|
G||-------------------------------------------------|
D||-x-x---------------------------------------------|
A||-x-x------------------5--------------------------|
E||-x-x---0-4---0-5-5--0---------0---7-7~-----------|

e||-------------------------------------------------|
B||-------------------------------------------------|
G||-------------------------------------------------|
D||-x--------------------x------x--x----------------|
A||-x-------------5------x------x--x----------------|
E||-x-5h7----7-7-7--5h7~-x------x--x----------------|

e||------------------------------------------------|
B||------------------------------------------------|
G||------------------------------------------------|
D||-x-x------------------x-x-x---------------------|
A||-x-x-----------5------x-x-x---------------------|
E||-x-x-5h7-7-7-7---5-0--x-x-x---------------------|

e||-----------------------------------------|
B||-----------------------------------------|
G||-----------------------------------------|
D||-x-x------------------x-x----------------|
A||-x-x-----------5------x-x----------------|
E||-x-x-5h7-7-7-7---5h7~-x-x----------------|

 no wah, just distortion
e||------------------------------------|
B||------------------------------------|
G||------------------------------------|
D||------------------------------------|
A||----------------5-------------------|
E||-\0-4--0-5-5--0---0-7-7~------------|


[Chorus]

e||---------------------------------------------|
B||-4---4-4---4--4---4------x-9b(10)(9)-7-9-7~--|
G||-4---4-4---4--4---4------x-9b(10)(9)-7-9-7~--|
D||-4---4-4---4--4---4------x-------------------|
A||--2-2---2-2----2-2---------------------------|
E||---------------------------------------------|

e||--------------------------------------|
B||--------------------------------------|
G||-4-4-4-4------------------------------|
D||-4-4-4-4------------------------------|
A||-2-2-2-2-----------------5------------|
E||----------\0-4--0-5-5--0---0-7-7~-----|

e||----------------------------------------|
B||-4-4--4-4--4-4------xx9b(10)10~---------|
G||-4-4--4-4--4-4------xx9b(10)10~---------|
D||-4-4--4-4--4-4------xx------------------|
A||-2-2--2-2--2-2--------------------------|
E||----------------------------------------|


e||------------------------------------|
B||------------------------------------|
G||-44-44------------------------------|
D||-44-44-\----------------------------|
A||-22-22-\--------------5-------------|
E||-------\0-4--0-5-5--0---0-7-7~------|

e||------------------------------------|
B||------------------------------------|
G||------------------------------------|
D||-------------------2----------------|
A||-0-2-2-2--5-2-2-2----2-2-2--5-2-2-2-|
E||------------------------------------|

e||-----------------------------------|
B||-----------------------------------|
G||-----------------------------------|
D||-----------------------------------|
A||----------------------5------------|
E||-0-4--0-5-5--0-6-6--0---7~---------|


[Verse]

    Wah...........wah off
e||------------------------------------|
B||---------------77-x-7-7~~-----------|
G||---------------77-x-7-7~~-----------|
D||------------------------------------|
A||---------5--------------------------|
E||-5h7-77-7--5h7----------------------|

    Wah...........no wah
e||------------------------------------|
B||---------------9~~~(----------------|
G||---------------9~~~-----------------|
D||------------------------------------|
A||---------5--------------------------|
E||-5h7-77-7--5-0----------------------|

    Wah........... no wah
e||-----------------------------------|
B||----------------9^9-7-99-----------|
G||----------------9^9-7-99-----------|
D||---------------9-------------------|
A||---------5-------------------------|
E||-5h7-77-7--5h7---------------------|

e||----------------------------------|
B||----------------------------------|
G||----------------------------------|
D||----------------------------------|
A||---------------5------------------|
E||-0-4--0-5-5--0---0-7-7~-----------|

    Wah........... no wah
e||-----------------------------------|
B||----------------9^9-7---9-7-99-----|
G||----------------9^9-7---9-7-99-----|
D||----------------------9------------|
A||---------5-------------------------|
E||-5h7-77-7--5h7---------------------|

    Wah.......... no wah
e||------------------------------------|
B||---------------9^9~~----------------|
G||---------------9^9~~----------------|
D||------------------------------------|
A||---------5--------------------------|
E||-5h7-77-7--5-0----------------------|

e||------------------------------------|
B||------------------------------------|
G||------------------------------------|
D||----------------xx------------------|
A||---------5------xx------------------|
E||-5h7-77-7--5h7~-xx------------------|

 no wah effect, just distortion
e||------------------------------------|
B||------------------------------------|
G||------------------------------------|
D||------------------------------------|
A||----------------5-------------------|
E||-\0-4--0-5-5--0---0-7-7~------------|


[Chorus]


[Solo]

e||---------------------------------------|
B||---------------------------------------|
G||-4p2-4p2--2h4p2-4b4v-4b-4-2h4p2-4b-2/--|
D||---------------------------------------|
A||---------------------------------------|
E||---------------------------------------|


e||-----2-----2----------------------------|
B||---2---2-----2-5bv5rb-2---2-------------|
G||-4b------4b-------------4---4b-2--4-2-4-|
D||----------------------------------------|
A||----------------------------------------|
E||----------------------------------------|

e||---------14--------------------------|
B||-------14--14-17-17-14----14-14------|
G||-4b/16b----------------16b------16---|
D||-------------------------------------|
A||-------------------------------------|
E||-------------------------------------|


e||-------------14-14---14-14-17P14----|
B||----------17b-----17b-----------17--|
G||-16rbp14----------------------------|
D||--------16--------------------------|
A||------------------------------------|
E||------------------------------------|

e||-17b------14-----14------------------|
B||------17b----17b-----17b17rb14-17-14-|
G||-------------------------------------|
D||-------------------------------------|
A||-------------------------------------|
E||-------------------------------------|

e||-----------------------------------|
B||----17-----------------------------|
G||-16b--16rbp14-16-14----16b16-14----|
D||--------------------16-------------|
A||-----------------------------------|
E||-----------------------------------|

e||-----------------------------------|
B||----------12---10---7--------------|
G||-16b16-14-14b--12b--9b-------------|
D||-----------------------------------|
A||-----------------------------------|
E||-----------------------------------|


[Interlude]

e||------------------------------------|
B||------------------------------------|
G||------------------------------------|
D||------------------------------------|
A||---------------5--------------------|
E||-0-4--0-5-5--0---0-7-7~-------------|

e||-----------------------------------|
B||-----------x9brbv------------------|
G||-----------x9brbv------------------|
D||-----------------------------------|
A||-----------------------------------|
E||-5-7--5-7--------------------------|

e||-----------------------------------|
B||-----------------------------------|
G||-----------------------------------|
D||-----------------------------------|
A||-------------------------5---------|
E||-5-7--5-7--0-4--0-5-5--0---0-7-7~--|


e||-----------------------------------|
B||-----------7h9-7h9-7h9p7-----------|
G||-----------7h9-7h9-7h9p7-----------|
D||-------------------------9-7-------|
A||-----------------------------------|
E||-5-7--5-7--------------------------|

e||-----------------------------------|
B||-----------------------------------|
G||-----------------------------------|
D||-----------------------------------|
A||--------------------------5--------|
E||-5-7--5-7--\0-4--0-5-5--0---0-7-7~-|
              pick scrape all the way down

e||------------------------------------|
B||------------------------------------|
G||-7-7--9-9---------------------------|
D||-7-7--9-9---------------------------|
A||-5-5--7-7------------------5--------|
E||-------------0-4--0-5-5--0---0-7-7~-|

e||------------------------------------|
B||------------------------------------|
G||-7-7--9-9---------------------------|
D||-7-7--9-9---------------------------|
A||-5-5--7-7------------------5--------|
E||-------------0-4--0-5-5--0---0-7-7~-|

e||------------------------------------|
B||------------------------------------|
G||-7-7--9-9---------------------------|
D||-7-7--9-9---------------------------|
A||-5-5--7-7------------------5--------|
E||-------------0-4--0-5-5--0---0-7-7~-|

e||------------------------------------|
B||------------------------------------|
G||-7-7--9-9---------------------------|
D||-7-7--9-9---------------------------|
A||-5-5--7-7------------------5--------|
E||-------------0-4--0-5-5--0---0-7-7~-|


e||-----------------------------------|
B||-----------------------------------|
G||-----------------------------------|
D||-----------------------------------|
A||---------------5-------------------|
E||-0-4--0-5-5--0---0-7-7~------------|

e||--------------------------------------|
B||--------------------------------------|
G||--------------------------------------|
D||--------------------------------------|
A||----------------5---------------------|
E||-0-4--0-5-5-5-5---0-7-7~--------------|

e||-------------------------------------|
B||-------------------------------------|
G||-------------------------------------|
D||-------------------------------------|
A||-------------------------------------|
E||-0-4--0-5-5--5-0-4--0-5-5------------|

e||------------------------------------|
B||------------------------------------|
G||------------------------------------|
D||-----------------------9\-----------|
A||-----------------5-----9\-----------|
E||-5-0-4--0-5-5--0---0-7-7\-----------|



************************************

| x  Dead note
| h  Hammer-on
| p  Pull-off
| b  Bend
| /  Slide up
| \  Slide down
| ~  Vibrato
| br bend release

************************************
Suggest correction
Creating personal tab
Creating personal tab
You can edit any tab online and save it as your Personal.

You can edit, replace or remove any tab part or add personal notes – all changes will be seen only by you.

Personal tabs can be accessed anytime from any device, even offline.
Learn more »
comments
print report bad tab
17 comments total. Showing first comments.
0 reply
gutterslash 10 Jun 18, 2006 08:12 AM

is this the right way to play it?

0 reply
cerveza 36 Jun 21, 2006 04:54 PM

I'm not sure about your intro but its a good tab, better than i did.

i tried to submit my updated version but it was declined

0 reply
ibanezGAX75 30 Jul 11, 2006 05:14 PM

other than a part missing near the end, it looks pretty good.

guest
You may want to rate the tab now too:
select rating
Wanna post a correction for this tab? Suggest correction