Oops, an error
Loading. Please wait.

Everything solo tab

version 1
version 1

Solo

Whole song

Interactive

4,477 views 1 this week
2 commentsread comments
1 2 3 4 5
x 3
add to favorites
×
Save as Personal and add changes to this tab that will be seen only by you. Learn more ›
×
You can save this tab as Personal to edit and correct it or add notes. All changes will be seen only by you. Learn more »
launch autoscroll
font size
0
reset
how to read this tab
guitar tuner
edit
Autoscroll
slow
fast
+/-
esc
set tempo
stop
Heres the Solo for Everything by Buckcherry. The other tab is pretty accurate for the 
of the song but had no solo, so I figure I'd tab it out. It might not be exactly 100% 
its only my second tab but im sure it comes very close, enjoy.

E---------------------------------------------------------------------|
B---------------------------------------------------------------------|
G--4~~-4--5/7--5--4--5/7---7/9/7---5/4--2--2--0--2/4--2/4--5--5/7-----|
D---------------------------------------------------------------------|
A---------------------------------------------------------------------|
E---------------------------------------------------------------------|

E---------------------------------------------------------------------|
B---------------------------------------------------------------------|
G--7/5--5-5-5-5~---5/7/5-4--5--7---/12-12-12-12~~------12-12-12-12p11~|
D---------------------------------------------------------------------|
A---------------------------------------------------------------------|
E---------------------------------------------------------------------|
                                 ..If I had everything would I....

E---------------------------------------------------------------------|
B---------------------------------------------------------------------|
G--11-12--14--14h16p14--14~--14/15-15/19 19/17--17-17~---17-17h19p17--|
D---------------------------------------------------------------------|
A---------------------------------------------------------------------|
E---------------------------------------------------------------------|

E---------------------------------------------------------------------|
B--------------/17--17--17--17/15--17-17-17-17-17-17-17-17/15---------|
G---17-16-14----------------------------------------------------------|
D---------------------------------------------------------------------|
A---------------------------------------------------------------------|
E---------------------------------------------------------------------|

E---------------------------------------------------------------------|
B----15-15-15/13--13-13-13/12-12-12-12/10--9-10~-9-10-10b-9-8~--5~~~--|
G---------------------------------------------------------------------|
D---------------------------------------------------------------------|
A---------------------------------------------------------------------|
E---------------------------------------------------------------------|

There ya go. That part at the very end might be a little bit off, it was a little 
Other than that it sounds perfect when I play it. Just to note the exact strums for each note 
be a tad off but all the notes that should be there are, I tried as best as I could to count.

Buckcherry is a great band and this is a great song, enjoy.

            
            
Suggest correction
Creating personal tab
Creating personal tab
You can edit any tab online and save it as your Personal.

You can edit, replace or remove any tab part or add personal notes – all changes will be seen only by you.

Personal tabs can be accessed anytime from any device, even offline.
Learn more »
Give kudos to tab author, rate the tab!
1 2 3 4 5
comments
print report bad tab
2 comments total.
0 reply
fallenjuggalo 10 Feb 01, 2008 05:10 AM

What tuning does this have to be in?

0 reply
coldfry1 2,158 Feb 07, 2008 06:15 PM

standard

guest
You may want to rate the tab now too:
select rating
Wanna post a correction for this tab? Suggest correction