Oops, an error
Loading. Please wait.

Next To You intro tab

version 1
version 1

Intro

Whole song

Interactive

1,780 views 1 this week
no commentswrite comment
1 2 3 4 5
3 more votes to show rating
add to favorites
×
Save as Personal and add changes to this tab that will be seen only by you. Learn more ›
×
You can save this tab as Personal to edit and correct it or add notes. All changes will be seen only by you. Learn more »
launch autoscroll
font size
0
reset
how to read this tab
guitar tuner
edit
Autoscroll
slow
fast
+/-
esc
set tempo
stop
Author
This intro is amazing!! visit our UG webpage at fallenfriday.com

b-bend string, p-pull off, h-hammer on

Intro
e--------------------------------------|
b--------------------------------------|
g--------------------------------------|
d--------------------------------------|
a-0--3--5-3-5b--5p3-5p3------3---------|
e-----------------------5p3-5-5-5--3h5-|

Guitar 1
e-------------------------------------|
b----1--3-1-3b--3p1-3p1------1--------|
g-2--------------------2p0-2-2-2--0h3-|
d-------------------------------------|
a-------------------------------------|
e-------------------------------------|

Guitar 2
e--------------------------------------|
b--------------------------------------|
g--------------------------------------|
d--------------------------------------|
a-0--3--5-3-5b--5p3-5p3------3---------|
e-----------------------5p3-5-5-5--3h5-|

Verse 1
e------------------------------------------|Lyrics: Coming to you honey on the
b------------------------------------------|eastside running and I ain't got
g---5----------------5----------7-7--------|time to waist.  Jump into the door
d-7-5--5-7-7-7-7-7-7-5-5-7------7-7-7------|of the backseat loving but you
a-7-3--5-7-7-7-7-7-7-3-5-7------5-5-7------|keeping me on the chase,
e-5----3-5-5-5-5-5-5---3-5----------5------|

Pre-Chorus
e------------------------------------------------------|
b------------------------------------------------------|
g-7---7-7-7-7-7-7-----7-7-7-7-7-7------------------5---|
d-7-7-7-7-7-7-7-7-5-5-7-7-7-7-7-7-5-5--7-7-7-7-7-7-5-5-|
a-5-7-5-5-5-5-5-5-5-5-5-5-5-5-5-5-5-5--7-7-7-7-7-7-3-5-|
e---5-------------3-3-------------3-3--5-5-5-5-5-5---3-|

e------------------------------------------|I've been trying all night long,
b------------------------------------------|I put up with your favorite songs
g-7-7-7-7-7-7------------------------------|all night. Tempted by your tainted
d-7-7-7-7-7-7-5-5--------------------------|love, I surely like the way you go
a-5-5-5-5-5-5-5-5--------------------------|inside my crystal ball what can
e-------------3-3--------------------------|I do

Lyrics to Chorus
Is it true what they say, you wont give it away, and I dont what to do to get next to 
next to you.  Every night every day, you just flush me away, tell me what can I do to get 
to you, next to you.

            
            
Suggest correction
Creating personal tab
Creating personal tab
You can edit any tab online and save it as your Personal.

You can edit, replace or remove any tab part or add personal notes – all changes will be seen only by you.

Personal tabs can be accessed anytime from any device, even offline.
Learn more »
Give kudos to tab author, rate the tab!
1 2 3 4 5
comments
print report bad tab
guest
You may want to rate the tab now too:
select rating
Wanna post a correction for this tab? Suggest correction