Oops, an error
Loading. Please wait.

Sorry tab

version 1
version 1

Whole song

Interactive

67,205 views 18 this week
10 commentsread comments
1 2 3 4 5
x 24
add to favorites
×
Save as Personal and add changes to this tab that will be seen only by you. Learn more ›
×
You can save this tab as Personal to edit and correct it or add notes. All changes will be seen only by you. Learn more »
launch autoscroll
font size
0
reset
how to read this tab
guitar tuner
edit
Autoscroll
slow
fast
+/-
esc
set tempo
stop
Author
"Sorry"- Buckcherry

Tabbed by Dukefan25

Standard Tuning

COMMENTS WELCOMED

There was a tab on here and i could tell after one line
that it was wrong so I just started foolin' around on
my own. Just a guess but maybe it helps...maybe it sucks.
Either way i tried. best of luck.

INTRO
e|--------------------------|
B|--3-----3-----3-----3-----|
G|--0-----0-----2-----2-----|
D|--------------------------|
A|--------------------------|
E|-----3-----3-----3-----3--|
|
|
|
e|--3-----2--------------------|
B|--3-----3-----1-----0-----3--|
G|--0-----2-----0-----0-----2--|
D|--0-----0-----2-----2-----0--|
A|--2--------------------------|
E|--3--------------------------|


PRE-CHORUS
e|---------------------------------------|
B|------3-----------3-----------3--------|
G|--------2---2-------2---2-------2---2--|
D|----4-----4-----4-----4-----4-----4----|
A|--2-----------0------------------------|
E|--------------------------3------------|
|
|
|
e|--3-----2-----2-----0-----3-----2-----0-----0--|
B|--3-----3-----3-----2-----3-----3-----2-----0--|
G|--0-----2-----4-----2-----4-----4-----2-----1--|
D|--0-----0-----4-----2-----5-----4-----2-----2--|
A|--2-----------2-----0-----5-----2-----0-----2--|
E|--3-----------2-----------3-----2-----------0--|


CHORUS
e|--2---0---2---2---3---5---0--|
B|--3---2---3---2---4---7---2--|
G|--2---2---4---3---4---7---2--|
D|--0---2---4---4---5---7---2--|
A|------0---2---4---5---5---0--|
E|----------2---2---3----------|


POST-CHORUS
e|--2---3---2---0---0---2---3-------0--|
B|--3---3---3---2---2---3---3-------2--|
G|--4---4---2---2---2---4---4---1---2--|
D|--4---5---0---2---2---4---5---2---2--|
A|--2---5-------0---0---2---5---2---0--|
E|--2---3---------------2---3----------|


I'm assuming you can put the parts together...I didn't
do the solo nor am I planning to. Hope it helped.
I know it's not perfect but it's a start in the right
direction!

COMMENTS WELCOMED!

            
            
Suggest correction
Creating personal tab
Creating personal tab
You can edit any tab online and save it as your Personal.

You can edit, replace or remove any tab part or add personal notes – all changes will be seen only by you.

Personal tabs can be accessed anytime from any device, even offline.
Learn more »
comments
print report bad tab
10 comments total. Showing first comments.
0 reply
OCguitarhead 10 May 02, 2007 10:44 AM

Very nice job on this one. The only thing i would change is in the pre chourus. On the second time around there is no G its an open E string on the repeat. Hit me back if you dont know what im talking about.

0 reply
stengelb 72 Jun 13, 2007 07:38 PM

its definately in the right direction, good work.

0 reply
tbaker23 31 Jan 01, 2008 03:08 PM

yea this tab is better than all the other one's on here for this song nice job

guest
You may want to rate the tab now too:
select rating
Wanna post a correction for this tab? Suggest correction