Oops, an error
Loading. Please wait.

Sorry bass

version 2
version 2

Whole song

Interactive

2,830 views 1 this week
no commentswrite comment
1 2 3 4 5
2 more votes to show rating
add to favorites
×
Save as Personal and add changes to this tab that will be seen only by you. Learn more ›
×
You can save this tab as Personal to edit and correct it or add notes. All changes will be seen only by you. Learn more »
launch autoscroll
font size
0
reset
guitar tuner
edit
Autoscroll
slow
fast
+/-
esc
set tempo
stop
Author


Verse 0:06
G|-------------------------------------------------------------------------|
D|-----5-7-5-----------\---------------------------------------------------|
A|-5-7-------------------------------------5-------5-------5-r-5-----------|
E|-------------------------3-r-3-------------------------------------------|
   3 + 4 + 1 + 2 + 3 + 4 + 1 + 2 + 3 + 4 + 1 + 2 + 3 + 4 + 1 + 2 + 3 + 4 +

G|-----------------------------------------------------------------|
D|-----------------------------------------------------------------|
A|---------------------------------5---------------5-r-5-----------|
E|-3---------------3-r-3-----------------------------------0---2---|
   1 + 2 + 3 + 4 + 1 + 2 + 3 + 4 + 1 + 2 + 3 + 4 + 1 + 2 + 3 + 4 +

0:22
G|-----------------------------------------------------------------|
D|-----------------------------------------------7-------------7---|
A|---------------------------------5-----------5---5-------4-------|
E|-3---------------3-r-3-------------------------------------------|
   1 + 2 + 3 + 4 + 1 + 2 + 3 + 4 + 1 + 2 + 3 + 4 + 1 + 2 + 3 + 4 +

Pre Chorus 
G|-----------------------------------------------------------------|
D|-----------------------------------------------------------------|
A|-2---------------0-r---------0-------------------------------0---|
E|-------------2-3-----------------3---------------3-r-3-----------|
   1 + 2 + 3 + 4 + 1 + 2 + 3 + 4 + 1 + 2 + 3 + 4 + 1 + 2 + 3 + 4 +

G|-----------------------------------------------------------------|
D|-----------------------------------------------------------------|
A|-2---------------0-----------------------------------------------|
E|-------------2-3-------------3-2-0-------0---0---0---0---0-2-3-\-|
   1 + 2 + 3 + 4 + 1 + 2 + 3 + 4 + 1 + 2 + 3 + 4 + 1 + 2 + 3 + 4 +

Chorus 0:43
G|-----------------------------------------------------------------|
D|-----------------------------------------2-0---------------------|
A|-5-------5-------0-----------1-1-2-----------2-0-----------------|
E|-------------2-3---------------------------------2---2---2---0-2-|
   1 + 2 + 3 + 4 + 1 + 2 + 3 + 4 + 1 + 2 + 3 + 4 + 1 + 2 + 3 + 4 +

G|-----------------------------------------------------------------|
D|-------------------------2-0-------------------------------7-----|
A|-----------------------------2-0-0-------0---0-------0---0-------|
E|-3-------3---2---0---0-----------------0---0---------------------|
   1 + 2 + 3 + 4 + 1 + 2 + 3 + 4 + 1 + 2 + 3 + 4 + 1 + 2 + 3 + 4 +

0:58
G|------------------------------------------------------------------|
D|----------------9-7-----------------------0-----------------------|
A|-5-------7-9-10-------7---0---0-1-2---------2-0-------------------|
E|------------------------------------------------3-2---2-------0-2-|
   1 + 2 + 3 + 4  + 1 + 2 + 3 + 4 + 1 + 2 + 3 + 4 + 1 + 2 + 3 + 4 +

G|-----------------------------------------------------------------|
D|-----------------------------------------------------------------|
A|-------------------------------0-0-------0---0-------------------|
E|-3-------3---2---0---0---3-0-3---------0---0---------------------|
   1 + 2 + 3 + 4 + 1 + 2 + 3 + 4 + 1 + 2 + 3 + 4 + 1 + 2 + 3 + 4 +

Interlude 1:13
G|-----------------------------------------------------------------|
D|---------------------------------0-------------------0---0-------|
A|-------------------------------------------------0-2---------2-0-|
E|-3---------------3-r-3-------------------------------------------|
   1 + 2 + 3 + 4 + 1 + 2 + 3 + 4 + 1 + 2 + 3 + 4 + 1 + 2 + 3 + 4 +

Verse 1:19
G|-----------------------------------------------------------------|
D|-------------------------------------------------------------4---|
A|---------------------------------5---------------5-r-5---7-------|
E|-3---------------3-r-3-------------------------------------------|
   1 + 2 + 3 + 4 + 1 + 2 + 3 + 4 + 1 + 2 + 3 + 4 + 1 + 2 + 3 + 4 +

G|-----------------------------------------------------------------|
D|-5---------------5-r-----------------------------------------4---|
A|---------------------------------5-------5-----0h5-r-5---7-----5-|
E|---------------------3-------------------------------------------|
   1 + 2 + 3 + 4 + 1 + 2 + 3 + 4 + 1 + 2 + 3 + 4 + 1 + 2 + 3 + 4 +

1:35
G|-----------------------------------------------------------------|
D|-----------------------------------------------7-------------7---|
A|-----------------------------7---5-------5-------5---5-r-4-------|
E|-3---------------3-r-3-------------------------------------------|
   1 + 2 + 3 + 4 + 1 + 2 + 3 + 4 + 1 + 2 + 3 + 4 + 1 + 2 + 3 + 4 +

Pre Chorus 
G|-----------------------------------------------------------------|
D|-----------------------------------------------------------------|
A|-2---------------0-r-----0-----------------------------------0---|
E|-------------2-3-------------0---3-------3-----0h3-r-3-----------|
   1 + 2 + 3 + 4 + 1 + 2 + 3 + 4 + 1 + 2 + 3 + 4 + 1 + 2 + 3 + 4 +

G|-----------------------------------------------------------------|
D|-----------------------------------------------------------------|
A|-2---------------0-------0---------------2-0---------------------|
E|-------------2-3-----------3-2---0-----------0-----------0-2-3-r-|
   1 + 2 + 3 + 4 + 1 + 2 + 3 + 4 + 1 + 2 + 3 + 4 + 1 + 2 + 3 + 4 +

Chorus 1:57
G|-----------------------------------------------------------------|
D|-----------------------------------------2-0---------------------|
A|-5-------5-------0---0---0---1-1-2-----------2-0-----------------|
E|-------------2-3---------------------------------2---2---2---0-2-|
   1 + 2 + 3 + 4 + 1 + 2 + 3 + 4 + 1 + 2 + 3 + 4 + 1 + 2 + 3 + 4 +

G|-----------------------------------------------------------------|
D|-----------------------------------------------------------------|
A|-------------------------------0-0-------0---0-----------0---7---|
E|-3-------3---2---0---0---3-0-3---------0---0-----------0---------|
   1 + 2 + 3 + 4 + 1 + 2 + 3 + 4 + 1 + 2 + 3 + 4 + 1 + 2 + 3 + 4 +

2:11
G|------------------------------------------------------------------|
D|----------------9-7---7---7---------------0-----------------------|
A|-5---5---7-9-10-------------7-0-1-2---2-----2-0-------------------|
E|------------------------------------------------3-2---2---2---0-2-|
   1 + 2 + 3 + 4  + 1 + 2 + 3 + 4 + 1 + 2 + 3 + 4 + 1 + 2 + 3 + 4 +

G|-----------------------------------------------------------------|
D|---------------------------------------7-------------7-----------|
A|-------------------------------0-0-------7-r-0---------0-0---0-1-|
E|-3-------3---2---0---0---3-0-3-----------------------------------|
   1 + 2 + 3 + 4 + 1 + 2 + 3 + 4 + 1 + 2 + 3 + 4 + 1 + 2 + 3 + 4 +

Bridge 2:26
G|-----------------------------------------------------------------|
D|-----------------0---0---2-0-----------------------------------0-|
A|-2---2---2---4---------------2-0-0---0---0-------------------2---|
E|---------------------------------------------3-2-0---0---0-------|
   1 + 2 + 3 + 4 + 1 + 2 + 3 + 4 + 1 + 2 + 3 + 4 + 1 + 2 + 3 + 4 +

G|-----------------------------------------------------------------|
D|-2---2---2-0-------------------/-7---7---7-----------------------|
A|-------------2-0-2---2---2---1---------------2---3---3-/-7---7---|
E|-----------------------------------------------------------------|
   1 + 2 + 3 + 4 + 1 + 2 + 3 + 4 + 1 + 2 + 3 + 4 + 1 + 2 + 3 + 4 +

G|-------------------------------------------------|
D|-5---5---7-5-------------------------------------|
A|-------------7---0---0---0---0---0---------------|
E|-------------------------------------------------|
   1 + 2 + 3 + 4 + 1 + 2 + 3 + 4 + 1 + 2 + 3 + 4 + 

Chorus 2:46
G|-----------------------------------------------------------------|
D|-----------------------------------------2-0---------------------|
A|-5-------5-------0---0---0---1---2-----------2-------------------|
E|-------------2-3---------------------------------2---2---2---0-2-|
   1 + 2 + 3 + 4 + 1 + 2 + 3 + 4 + 1 + 2 + 3 + 4 + 1 + 2 + 3 + 4 +

G|-----------------------------------------------------------------|
D|-------------------------2-0-------------------------7-r-7-------|
A|-----------------------------2---0-------0-r-0-----7---------0-2-|
E|-3-------3---2---0---0-----------------0-------------------------|
   1 + 2 + 3 + 4 + 1 + 2 + 3 + 4 + 1 + 2 + 3 + 4 + 1 + 2 + 3 + 4 +

3:00
G|------------------------------------------4-2---------------------|
D|----------------9-7-r-------------------4-----4-2-4---------------|
A|-5-------7-9-10-------7-r-0---1---2-------------------------0-----|
E|------------------------------------------------------2---2---2---|
   1 + 2 + 3 + 4  + 1 + 2 + 3 + 4 + 1 + 2 + 3 + 4 + 1 + 2 + 3 + 4 +

G|------------------------------------------------------------------|
D|-------------------------2-0-----------------7-----0/11---9-7-----|
A|-----------------------------2-0-0-------0--------------------9-7-|
E|-3-------3---2---0---0-----------------0---0----------------------|
   1 + 2 + 3 + 4 + 1 + 2 + 3 + 4 + 1 + 2 + 3 + 4 + 1 + 2  + 3 + 4 +

3:15
G|-----------------------------------------------------------------|
D|-------------7h9p7-----7-----------------0-----------------------|
A|-5-------7h9---------7---0---1---2---2-----2-0-------------------|
E|-----------------------------------------------3-2---2---2---0-2-|
   1 + 2 + 3 + 4 + 1 + 2 + 3 + 4 + 1 + 2 + 3 + 4 + 1 + 2 + 3 + 4 +

G|-----------------------------------------------------------------|
D|-----------------------------------------------------------------|
A|-------------------------------0-0-------------------------------|
E|-3-------3---2---0---0---3-0-3-----------------------------------|
   1 + 2 + 3 + 4 + 1 + 2 + 3 + 4 + 1 + 2 + 3 + 4 + 1 + 2 + 3 + 4 +
Tabbed by Dave Vucko


=========================================================================
My original version

0:06
G|--------------------------------------------------------|
D|---575~~\-----------------------------------------------|
A|--5---------------5~-5~-5r5~---------------5~---5r5~----|
E|-3-------3r3~------------------3~---3r3~------------0-2-|

0:22
G|------------------------------------------------------------------------------|
D|-----------------8-----7------------------------------------------------------|
A|-------------5~---5~-4---2~----0~---0------------0-2~----0~-------------------|
E|-3~---3r3~-------------------23-------3~---3r3~--------23----320~-0-0-0-0-235-|

0:43
G|-------------------------------------------------------------|
D|-------------------------------------------------------91112-|
A|-5~-5~---0~---0-2~--75-------------------75------------------|
E|-------23-------------752-2-2-023~---3\0---875~-0505~--------|

0:58
G|-----------------------------------------------------------|
D|--------9--------------------------------------------------|
A|-5~-7810-12----12-------54---------------------------------|
E|------------12----567~----752-2-2-023~-3-2-0~-20375~-0505~-|

1:13
G|----------------------------------------------------------------------------|
D|----------------------------------------------------------------------------|
A|-----------5~----5~-20------------5~---5r5-5-7-10~---10r10~---5~--05r5~7----|
E|-3~---3r3~-----57-----3~---3r3~------------------------------------------75-|

1:35
G|--------------------------------------------------------------------------------|
D|-----------------8-----7--------------------------------------------------------|
A|-----------8-5~---5~-4---2~-----------------------------------------------------|
E|-3~---3r3~-------------------235~---0-3~-3~-03r3~--5-7~--235~532-0~-0-0-0-0-235-|

1:57
G|---------------------------------------------------------------|
D|---------------------------------------------------------------|
A|-5~-5~---0-0-0-112~--75--------------------------------------7-|
E|-------23--------------752-2-2-023~--3-3\0-30375~-0505~--5~75--|

2:11
G|-------------------------------------------------------------------|
D|--------9----------------------------------------------------------|
A|-5~-7810-12-12-12-------54-----------------------------------------|
E|------------------567~----752-2-2-023~-3-2-0~-20375~-05r5~-5r5~-56-|

2:26
G|----------------------------------------------------------------------------------|
D|----------------------------------------------------------------------------------|
A|------4-5~-875----------------7~-75432~-2-1-0-0-0-2-3-3/7-7/10-10-12107-0-0-0-0-0-|
E|-7~-7---------75~-5-530-0-0-53----------------------------------------------------|

2:46
G|-----------------------------------------------------------------|
D|-----------------------------------------------------------------|
A|-5~-5~---0-0-0-112~--75--------------------75--------------------|
E|-------23--------------752-2-2-023~--3-3\0---875~-05r5~-05r5~-57-|

3:00
G|----------------------------------------------------------------------|
D|--------9--------------------------------------------------0-/12~8753-|
A|-5~-7810-12----12------54---------------------------------------------|
E|------------12----567~7--752-2-2-02-3~-3-2-0~-20375~-0505~------------|

3:15
G|--------------------------------------------------|
D|-------7h8p7---7----------------------------------|
A|-5~-7h8------7---0-2-20---------------------------|
E|-----------------------322-2-2-023~-3-2-0~-30375~-|
Tabbed by Dave Vucko
Suggest correction
Creating personal tab
Creating personal tab
You can edit any tab online and save it as your Personal.

You can edit, replace or remove any tab part or add personal notes – all changes will be seen only by you.

Personal tabs can be accessed anytime from any device, even offline.
Learn more »
Give kudos to tab author, rate the tab!
1 2 3 4 5
comments
print report bad tab
guest
You may want to rate the tab now too:
select rating
Wanna post a correction for this tab? Suggest correction