Oops, an error
Loading. Please wait.

Sorry Acoustic tab

version 3
version 3

Whole song

Interactive

69,725 views 15 this week
8 commentsread comments
1 2 3 4 5
x 25
add to favorites
×
Save as Personal and add changes to this tab that will be seen only by you. Learn more ›
×
You can save this tab as Personal to edit and correct it or add notes. All changes will be seen only by you. Learn more »
launch autoscroll
font size
0
reset
how to read this tab
guitar tuner
edit
Autoscroll
slow
fast
+/-
esc
set tempo
stop
Author
Difficulty
I figured people should know how to actually play it on the acoustic and make it sound 
instead of all chords!

[INTRO]
e|--------------------------|
B|--3-----3-----3-----3-----|
G|--0-----0-----2-----2-----|x2
D|--------------------------|
A|--------------------------|
E|-----3-----3-----3-----3--|

[VERSE ONE]x3
Oh I...
e|--------------------------|
B|--3-----3-----3-----3-----|
G|--0-----0-----0-----0-----|
D|--------------------------|
A|--------------------------|
E|-----3-----3-----3-----3--|

Had a lot...
e|--------------------------|
B|--3-----3-----3-----3-----|
G|--2-----2-----2-----2-----|
D|--------------------------|
A|--------------------------|
E|-----3-----3-----3-----3--|

[BRIDGE]
                  Bm                        A
'Cause everything inside it never comes out right
                   Bm     A               E
And when I see you cry it makes me wanna die.

[CHORUS]
              D                     A
I'm sorry I'm bad, I'm sorry you're blue
                Bm               F#
I'm sorry about all the things I said to you
      G    D                A
And I know I can't take it back
                   D                 A
I love how you kiss, I love all your sounds
             Bm              F#
And baby the way you make my world go 'round
      G    E        A
And I just wanted to say I'm sorry.

[INTERLUDE BETWEEN CHORUS AND VERSE 2]
e|----------------------------------------------------|
B|--3-----3-----3-----3-------3-----3-----3-----3-----|
G|--0-----0-----0-----0-------2-----2-----2-----2-----|
D|----------------------------------------------------|
A|----------------------------------------------------|
E|-----3-----3-----3-----3-------3-----3-----3-----3--|

REPEAT [VERSE 1] WITH THE FOLLOWING LYRICS:
This time, I think I'm to blame
It harder, to get through the days
We get older and blame turns to shame

[BRIDGE]
                  Bm                        A
'Cause everything inside it never comes out right
                   Bm     A               E
And when I see you cry it makes me wanna die.

[CHORUS]
              D                     A
I'm sorry I'm bad, I'm sorry you're blue
                Bm               F#
I'm sorry about all the things I said to you
      G    D                A
And I know I can't take it back
                   D                 A
I love how you kiss, I love all your sounds
             Bm              F#
And baby the way you make my world go 'round
      G    E        A
And I just wanted to say I'm sorry.

[BREAKDOWN]
Bm       D            A                       E
   Every single day i think about how we came all this way
    E                        Bm
The sleepless nights and the tears you cried
     A                  C
It's never too late to make it right

Oh yeah sorry

[CHORUS]
              D                     A
I'm sorry I'm bad, I'm sorry you're blue
                Bm               F#
I'm sorry about all the things I said to you
      G    D                A
And I know I can't take it back
                   D                 A
I love how you kiss, I love all your sounds
             Bm              F#
And baby the way you make my world go 'round
      G    E        A
And I just wanted to say I'm sorry.

[ENDING]
Chords - D-A-Bm-F#-G-D-A
(played just like the chorus up until "...take it back")

Then:
e|--------------------------|
B|--3-----3-----3-----3-----|
G|--0-----0-----2-----2-----|
D|--------------------------|x2
A|--------------------------|
E|-----3-----3-----3-----3--|

e|--------------------------|
B|--3-----------------------|
G|--0-----------------------|
D|--------------------------|
A|--------------------------|
E|--------------------------|

[FIN]

            
            
Suggest correction
Creating personal tab
Creating personal tab
You can edit any tab online and save it as your Personal.

You can edit, replace or remove any tab part or add personal notes – all changes will be seen only by you.

Personal tabs can be accessed anytime from any device, even offline.
Learn more »
comments
print report bad tab
8 comments total. Showing first comments.
0 reply
1blind1 10 Apr 29, 2008 01:58 PM

good

0 reply
jorsguitar 10 May 02, 2008 01:25 AM

isnt there suppode to be a G in the bridge..Cause everything (B) inside(A) never comes out (G)right........something like that

0 reply
kkristen1 520 Mar 17, 2009 10:52 AM

jorsguitar is correct.

guest
You may want to rate the tab now too:
select rating
Wanna post a correction for this tab? Suggest correction