Oops, an error
Loading. Please wait.

12 Days Of Christmas Tab

version 1
version 1

Intro

Whole song

13,305 views 6 this week
8 commentsread comments
1 2 3 4 5
worth learning
x 3
add to favorites
launch autoscroll
font size
0
reset
how to read this tab
guitar tuner
Tab Pro tools
  • play this tab
  • loop segment
  • change instrument
  • show fretboard
  • metronome
Autoscroll
slow
fast
+/-
esc
set tempo
stop
Contributor
Difficulty
intermediate
im pretty sure this is the way he plays it. ive watched the videoclip loads bt there is 
one part i cnt figure out. if u know it plz post it.
e-----------01-0-|
A----111-013--3--|
D-000------------|
G----------------|
B----------------|
E----------------|
on the first day of christmas, my true love gave to me...

e-3-01--|
A--3--3-|
D-------|
G-------|
B-------|
E-------|
he plays this about 32 times.

e-3-5-2-3-|
A---------|
D---------|
G---------|
B---------|
E---------|
Five golden rings

e-310---1----------|
A----31---1--310---|
D--------2------20-|
G------------------|
B------------------|
E------------------|
Four something 3 something 2 something

sorry i dont actually knw the lyrics. if u knw the and a partrige in a paer tree part 
plz plz post it
comments
We did not receive enough feedback on this tab! Please rate:
print report bad tab
1 2 3 4 5
8 comments total. Showing first comments.
+3 reply
hom-sha-bom wrote on September 1 2008, 10:07 am

don't think ive ever heard him play this

+1 reply
fklzm wrote on October 9 2008, 08:40 pm

i have.
Uhhmm.....i sorta found out the part, cant get the VERY end of it though D: i'll toy around with it. Gj with the tab btw ^^

Alright....so...theres this part

e-310---1----------|
A----31---1--310---|
D--------2------20-|
G------------------|
B------------------|
E------------------|

then after that it's

e-1-3--5-1-3-------|
A------------3-6-5-|
D------------------|
G------------------|
B------------------|
E------------------|

and the adjustment for the end is you start it with an open e

e-0-1-3--5-1-3------|
A-------------3-6-5-|
D-------------------|
G-------------------|
B-------------------|
E-------------------|


it sounds like shit...but...it's all i got man x.x sorry

0 reply
Tonsta! wrote on October 19 2008, 02:42 am

ohk i figured sumthn out guys. im kinda slow but his lepaul guitar is dropped down half a step and so is this song

e-0-1-3--5-1-3------|
A-------------1-3-1-|
D-------------------|
G-------------------|
B-------------------|
E-------------------|

I want to post or [tab]
guest
You may want to rate the tab now too:
select rating
Please do not post tabs as comments. Select "correction" instead!