Oops, an error
Loading. Please wait.

All In The Waiting Tab

version 2
version 2

Whole song

Interactive

36,143 views 84 this week
9 commentsread comments
1 2 3 4 5
excellent!
x 23
add to favorites
launch autoscroll
font size
0
reset
how to read this tab
guitar tuner
Tab Pro tools
  • play this tab
  • loop segment
  • change instrument
  • show fretboard
  • metronome
Autoscroll
slow
fast
+/-
esc
set tempo
stop
Contributor


Tune down half step
1.D#   4.C#
2.A#   5.G#
3.F#   6.D#

rythm

E|[:-3-------2----------2---3--------2----------2-------|
B|[:----3-------3-----3--------3--------3-----3---------|
G|[:------0--------0--------------0--------0------------|
D|[:----------------------------------------------------|
A|[:----------------------------------------------------|
E|[:-3----------------------3---------------------------|


E|-2-------0----------0---2--------0----------0----------|
B|----3-------3-----3--------3--------3-----3------------|
G|------0--------0--------------0--------0---------------|
D|-------------------------------------------------------|
A|-2----------------------2------------------------------|
E|-------------------------------------------------------|


E|-2-------3----------3---2--------3----------3--------|
B|----3-------3-----3--------3--------3-----3----------|
G|------0--------0--------------0--------0-------------|
D|-----------------------------------------------------|
A|-3----------------------3----------------------------|
E|-----------------------------------------------------|


E|-3-------2----------2---3--------2----------2-------:]
B|----3-------3-----3--------3--------3-----3---------:]
G|------0--------0--------------0--------0------------:]
D|----------------------------------------------------:]
A|----------------------------------------------------:]
E|-3----------------------3---------------------------:]

repeat during the whole song!!

Lead guitar. 0.20

E|-5-/6--7-7~---10\8--7-5/6-7-7~--7-5-5-5\3--3~----------------|
B|-7-/8--8-8~---12\10-8-7/8-8-8~--8-7-7-7\5--5~--8p7-----------|
G|---------------------------------------------------7---------|
D|-----------------------------------------------------7-7h9~--|
A|-------------------------------------------------------------|
E|-------------------------------------------------------------|


E|-5-/6--7-7~---10-10-8--7-5/6-7-7~--10-10-8--7-7\3--3~--2~-----|
B|-7-/8--8-8~---12-12-10-8-7/8-8-8~--12-12-10-8-8\5--5~--3~-----|
G|--------------------------------------------------------------|
D|--------------------------------------------------------------|
A|--------------------------------------------------------------|
E|--------------------------------------------------------------|

0.52
E|---------------------------------10-10-10-8-7-7-8-------------|
B|-7h8-7---------------5-7/8-7h8~-------------------8~----------|
G|-------7---------4h7------------------------------------------|
D|---------7h9~--5----------------------------------------------|
A|--------------------------------------------------------------|
E|--------------------------------------------------------------|

E|-----------------------------------------------------------15-|
B|--------7h8-7-7-7-8-------12-/10--8~~-----------------12-15---|
G|----7-9-------------7~-----------------------12-12h14---------|
D|--9------------------------9--/7--5~~--12h14------------------|
A|--------------------------------------------------------------|
E|--------------------------------------------------------------|

   1.16
E|-14-14h15---------17-17-17-17-15-14-14-15---------------------|
B|----------15-15~--------------------------15h17-15~-----------|
G|--------------------------------------------------------------|
D|--------------------------------------------------------------|
A|--------------------------------------------------------------|
E|--------------------------------------------------------------|

  1.24
E|-------12-15-14-----------------------------------------------|
B|-12h15----------15~--12-12~-------12p10-----------------------|
G|----------------------------14-14~------12--------------------|
D|-------------------------------------------12h14p12-----------|
A|---------------------------------------------------12/9-7-7h9~|
E|--------------------------------------------------------------|

E|--------------5/6-7-7~--7-8p7--5-5h7------12-12-10-10~-14-14--|
B|-----------8~-7/8-8-----8-8----7-7---7-7~-13-13-12-12~-15-15--|
G|---------7----------------------------------------------------|
D|-7-9-7-9------------------------------------------------------|
A|--------------------------------------------------------------|
E|--------------------------------------------------------------|

          1.49
E|-12-12~--17--15p14-15-----------------------------------------|
B|-13-13~----------------15~------------------------------------|
G|---------------------------14p12p11-12------------------------|
D|---------------------------------------12-------12------------|
A|------------------------------------------12h14----12h14p12---|
E|------------------------------------------------------------15|

E|--------------------------------------------------------------|
B|---------10-10-12-12h15-12----15------------------------------|
G|----11~--11----------------14-----12--11~---------------------|
D|----12~------------------------------------------------12-----|
A|-------------------------------------------14~---12h14--------|
E|-15-----------------------------------------------------------|

  2.03
E|--------------------------------------------------------------|
B|-------------------------------12-12--10--12-12--12-12~-------|
G|--14--14h16--14--14/12--11h12--12-12--11--11-11--11-11~-------|
D|--------------------------------------------------------------|
A|--------------------------------------------------------------|
E|--------------------------------------------------------------|

   2.13
E|---------------------------15-14-14--15-----------------------|
B|-------12--------15~~-------------------15--------------------|
G|-12h14-----14p12----------------------------------------------|
D|--------------------------------------------------------------|
A|--------------------------------------------------------------|
E|--------------------------------------------------------------|

  2.21  HARMONICS!
E|-[12]-----[12]-[7]------------------[12]---[7]-[5]------------|
B|-----0-[7]---------[12]-13-12---12~-----[7]-------[5]-[7]-----|
G|------------------------------11------------------------------|
D|--------------------------------------------------------------|
A|--------------------------------------------------------------|
E|--------------------------------------------------------------|

                         REPEAT INTRO
E|------8--7~--7--8--7~-----------------------------------------|
B|-------------8--10-8~-----------------------------------------|
G|-[5]----------------------------------------------------------|
D|--------------------------------------------------------------|
A|--------------------------------------------------------------|
E|--------------------------------------------------------------|

Rate and Comment Please :)

Legend
--------
[ x ] : natural harmonic
  h   : hammer-on
  p   : pull-off
  /   : slide up
  \   : slide down
  ~   : let ring
comments
print report bad tab
9 comments total. Showing first comments.
0 reply
Nacho Cheese! wrote on May 27 2008, 03:51 pm

Ending part of the intro slide thing sounds off. There seems to be something mission or something.

E|-5-/6--7-7~---10-10-8--7-5/6-7-7~--10-10-8--7-7\3--3~--2~-----|
B|-7-/8--8-8~---12-12-10-8-7/8-8-8~--12-12-10-8-8\5--5~--3~-----|
G|--------------------------------------------------------------|
D|--------------------------------------------------------------|
A|--------------------------------------------------------------|
E|--------------------------------------------------------------|

The ending of that part. Maybe I am incompetent and can't get it...I somewhat went over the rest and it seems good though. I thought I would have to tab this one out myself too :) You should do Spell of the Gypsies now.... :) I would love you forever.

0 reply
food1010 wrote on May 27 2008, 07:45 pm

^There is something missing.
This tab is not 100% accurate. I've been trying to tab it out. You got some parts I didn't get and I got some parts that you didn't. Maybe I'll post a new version, combining both of ours?

+1 reply
toine wrote on May 28 2008, 04:00 am

i'll post a powertab of this song soon it's seems correct to me.
i can't tab spell of the gypsies.only this 1.34
E
B------11-12-12-11-12---12--12-
G-11-13---------------11---9--8-- etc.

I want to post or [tab]
guest
You may want to rate the tab now too:
select rating
Please do not post tabs as comments. Select "correction" instead!