Oops, an error
Loading. Please wait.

Android Of Notre Dame Tab

version 1
version 1

Whole song

3,071 views 9 this week
4 commentsread comments
1 2 3 4 5
excellent!
x 4
add to favorites
launch autoscroll
font size
0
reset
how to read this tab
guitar tuner
Autoscroll
slow
fast
+/-
esc
set tempo
stop
Help us to improve Ultimate-Guitar.com Take our survey!
×
Author
Difficulty
intermediate
-------------------------------------------------------------------------------
                             The Android of Notre Dame - Buckethead
-------------------------------------------------------------------------------
Tabbed by:Tom
Email:tomophilia99@yahoo.com

As always I welcome questions and comments to my email or UG msg.

Tuning:standard



Intro. Clean.  its sounds much nicer if you play this with your fingers(no pick) 
e|---------------------------------------------------------------------------|
B|---------------------------------------------------------------------------|
G|---------------------------------------------------------------------------|
D|---------------------------------------------------------------------------|    (X2)
A|-------2p1--2p1--3p2-3p2-4p3-4p3-5p4-5p4-6p5-6p5-7p6-7p6-8p9-8p9---9~------|
E|--(2)*----2----2----3---3---4---4---5---5---6---6---7---7---8---8----------|
Light P.M.^^^^^^^^^^^^^^^^^^^^^^^^^^^^^^^^^^^^^^^^^^^^^^^^^^^^^^^^^^^^^^^^
*this note is only played the second time around


00:09
e|---------------------------------------------------------------------------|
B|---------------------------------------------------------------------------|
G|---------------------------------------------------------------------------|
D|-4-4-4-------2-4-----------------------------------------------------------|
A|-2-2-2-5-5-5-0-2-----------------------------------------------------------|
E|-------3-3-3---------------------------------------------------------------|

e|---------------------------------------------------------------------------|
B|---------------------------------------------------------------------------|
G|---------------------------------------------------------------------------|
D|------------------------2--------------------------------------------------|
A|-9p5h9p5h9--5p2h5p2h5p2----------------------------------------------------|
E|---------------------------------------------------------------------------|


00:15                      00:23
e|------------------------|----------------|---------------------------------|
B|------------------------|----------------|---------------------------------|
G|------------------------|-4-4-4-4-4-4----|---------------------------------|
D|---4-5-4------------(X2)|-4-4-4-4-4-4(X6)|---------------------------------|
A|-2--------2-4-5-2-------|-2-2-2-2-2-2----|---------------------------------|
E|------------------------|----------------|---------------------------------|
Trem. Pick^^^^^^^^^^^^^^^^
P.M.^^^^^^^^^^^^^^^^^^^^^^^^^^^^^^^^^^^^^^^
Whammy pedal set 1 octave down



00:23
e|-----------------14h19-T22----------------------------14h19-T21------------|
B|--------------15------------15---------------------15----------------------|
G|-----------14------------------14---------------14-------------------------|
D|-------14-------------------------14---------14----------------------------|
A|-14h17-------------------------------17-14h17------------------------------|
E|---------------------------------------------------------------------------|

e|-----------------14h19-19p14----------------------------14h19-T21----------|
B|--------------15-------------15---------------------15------------15-------|
G|-----------14-------------------14---------------14------------------14----|
D|-------14--------------------------14---------14------------------------14-|
A|-14h17--------------------------------17-14h17-----------------------------|
E|---------------------------------------------------------------------------|


e|-------------------14/19br-------------------------------------------------|
B|----------------15---------------------------------------------------------|
G|-------------14------------------------------------------------------------|
D|----------14---------------------------------------------------------------|
A|-17-14h17------------------------------------------------------------------|
E|---------------------------------------------------------------------------|



00:36 - This part isn't perfect but it's as close as I'll get without spending a decade
on it.  It is played EXTREMELY FAST with 6 fingers.  You can find lessons on this one 
technique alone on Youtube; look up "nubbing"  Let's Go!!        
e|---------------------------------------------------------------------------|
B|---------------------------------------------------------------------------|
G|-----------------------------------------------------13P7--12P6--11P5\4----|  (X3)
D|-----------------------------------13P7--12P6--11P5------------------------|
A|------------------13P7--12P6--11P5-----------------------------------------|
E|-13P7--12P6--11P5----------------------------------------------------------|
   T     T     T    T     T      T   T     T      T    T     T     T



00:44,
e|-------------------------|-------------------------------------------------|
B|-------------------------|-------------------------------------------------|
G|-------------------------|-------------------------------------------------|
D|---------------------(X3)|-----4-----2---2---------------------------------|
A|-------2------0----0-----|---2---2-5---5-----------------------------------|
E|-0--0----0--3----3-------|-0-----------------------------------------------|

Solo  00:44
e|--------------------------------------------14br-p12----12-----------------|
B|----------------------/12-10-------------------------15----15-14-15-14-----|
G|--------7h9-7----7-----------11-9------------------------------------------|
D|-9-7-9--------9-------------------12---------------------------------------|
A|---------------------------------------------------------------------------|
E|---------------------------------------------------------------------------|

e|---------------------------------------------------------------------------|
B|-----------------------------------15p14-----------------------------------|
G|-11/14-16----------------------11------------------------------------------|
D|----------11h12p11\9~--9/11/12---------------------------------------------|
A|---------------------------------------------------------------------------|
E|---------------------------------------------------------------------------|

1:00,1:15
e|---------------------|-----------------------------------------------------|
B|---------------------|-----------------------------------------------------|
G|---------------------|-----------------------------------------------------|
D|-----------------(X3)|-----------------------------------------------------|
A|---2-5-0-3-5-3-5-----|-----------------------------------------------------|
E|-0-------------------|-----------------------------------------------------|


1:04
e|---------------------------------------------------------------------------|
B|--9------5-----8-----------------------------------------------------------|
G|--9------8-----7-----9-----------------------------------------------------|
D|--9------7-----6-----9-----------------------------------------------------|
A|--8------6-----7-----8-----------------------------------------------------|
E|---------5-----------------------------------------------------------------|

1:18
e|---------------------------------------12/17--14h17--14V.S.----------------|
B|-----12-----15-14--10----10h12------10-------------------------------------|
G|--12-----11-----------11-------9h11----------------------------------------|
D|---------------------------------------------------------------------------|
A|---------------------------------------------------------------------------|
E|---------------------------------------------------------------------------|
V.S.- Volume Swell




1:30
e|---------------------------------------------------------------------------|
B|----9-----7----5-----15----------------------------------------------------|
G|----9-----7----5-----15----------------------------------------------------|
D|----9-----7----5-----15----------------------------------------------------|
A|----8-----6----4-----14----------------------------------------------------|
E|---------------------------------------------------------------------------|

1:36
this part is pretty random but it is just these 2 notes
e|---------------------------------------------------------------------------|
B|---------------------------------------------------------------------------|
G|---------------------------------------------------------------------------|
D|---------2--2-2------------------------------------------------------------|
A|---------------------------------------------------------------------------|
E|--0-0-0-----------0-0-0-0--------------------------------------------------|
heavy P.M.^^^^^^^^^^^^^^^^^^^^^^^^^^^^^^^^^^^^^^^^^^^^^^^^^^^^^^^


1:52  I was unable to do this whole solo. Here is the beginning, it pretty simple
just really fast chromatics
e|--13p12p11--13p12p11-------------------------------------------------------|
B|----------------------13p12p11---------------------------------------------|
G|--------------------------------13p12p11-----------------------------------|
D|---------------------------------------------------------------------------|
A|---------------------------------------------------------------------------|
E|---------------------------------------------------------------------------|

2:00
use your thumb while putting some serious plam muting on the strings(like a 
bass slap)
e|---------------------------------------------------------------------------|
B|---------------------------------------------------------------------------|
G|---------------------------------------------------------------------------|
D|---------------------------------------------------------------------------|
A|---------------------------------------------------------------------------|
E|-5h7h8h10p8p7p5-5h7h8h10p8p7p5-5h7h8h10p8p7p5-5h7h8h10p8p7p5-5h7h8h10p8p7p5|

2:12
e|---------------------------------------------------------------------------|
B|--5--x-x5-x-5----5--x-x-5-x-5----------------------------------------------|
G|---------------------------------------------------------------------------|
D|---------------------------------------------------------------------------|
A|---------------------------------------------------------------------------|
E|---------------------------------------------------------------------------|


e|---------------------------------------------------------------------------|
B|--15--------15-15----------------------------------------------------------|
G|------13-13----------------------------------------------------------------|
D|---------------------------------------------------------------------------|
A|---------------------------------------------------------------------------|
E|---------------------------------------------------------------------------|


2:31
e|---------------------------------------------------------------------------|
B|---------------------------------------------------------------------------|
G|---------------------------------------------------------------------------|
D|----------4--(X3)---7h8h9-6h7h8-(X8)---------------------------------------|
A|--4-3-4-4-5----------------------------------------------------------------|
E|---------------------------------------------------------------------------|

2:44
e|---------------------------------------------------------------------------|
B|---------------------------------------------------------------------------|
G|-------------------------------------/15--/17------------------------------|
D|-----------17---------15\13\12/13------------------------------------------|
A|-3---/6--/-----15-18-------------------------------------------------------|
E|---------------------------------------------------------------------------|

e|---------------------------------------------------------------------------|
B|-x-x-x-x-x-x-x-x-x-x-x-x---------------------------------------------------|
G|---------------------------------------------------------------------------|
D|---------------------------------------------------------------------------|
A|---------------------------------------------------------------------------|
E|---------------------------------------------------------------------------|

2:59
e|------------------------12-/14-/15-14h15p14-15/17--17/19-17-15-14~---------|
B|--------------------10-----------------------------------------------------|
G|--------11b-9-7h9b---------------------------------------------------------|
D|-/9--12b-------------------------------------------------------------------|
A|---------------------------------------------------------------------------|
E|---------------------------------------------------------------------------|



3:05
e|---------------------------------------------------------------------------|
B|---------------------------------------------------------------------------|
G|---------------------------------------------------------------------------|
D|---------------------------------------------------------------------------|
A|-6/7-6/7-8-6/7-6/7---------------------------------------------------------|
E|-6/7-6/7-8-6/7-6/7---------------------------------------------------------|

3:09
e|-------9p7-----------13----------------13-16-13----------------------------|
B|-----7------------x-----13--10-------13--------13--------------------------|
G|-----x--------11---------------10~-13------------13------------------------|
D|---9--------9--------------------------------------------------------------|
A|---------------------------------------------------------------------------|
E|---------------------------------------------------------------------------|

e|-----13-16/18--\|--------------------------------------10-12-10------------|
B|---13-----------|--------12-/15-12--------14-12----------------10----------|
G|-13-------------|------11----------11--11------------10-----------10--10---|
D|----------------|--9h12----------------12----------11-----------------11---|
A|----------------|----------------------13--------12-------------------12---|
E|----------------|----------------------------------------------------------|


e|-12-10---------10-/14-------------14-13p10---------------------------------|
B|------------12-------15--------------------12------------------------------|
G|---------11-------------16----16--------------11/10-9\8\7\6\5\4\3\2--------|
D|---------------------------14--------------------11\10\9\8\7\6\5\4\3-------|
A|---------------------------------------------------------------------------|
E|---------------------------------------------------------------------------|
************************************

| /   slide up
| \   slide down
| h   hammer-on
| p   pull-off
| ~   vibrato
| +   harmonic
| x   Mute note
| b   Bend
| pb  Pre-bend
| br  Bend release
| pbr Pre-bend release
| brb Bend release bend
| T   Tap

************************************
Suggest correction
comments
print report bad tab
4 comments total. Showing first comments.
+1 reply
john flans 10 wrote on March 1 2010, 07:02 pm

OH MY GOSH!!! THANK YOU THANK YOU THANK YOU!!!!!I CANT BELEIVE YOU TAABBED OUT THE SWEEP PICK PARTS!!YOUR MY IDOL!!! I HAVE BEEN WANTING TO TAB THIS BUT IT WAS TOO HARD TO TAB!!ONCE AGAIN THANK YOU!!!!!

+2 reply
[travis] 2,913 wrote on March 1 2010, 08:02 pm

I'm giving you a 5 just for trying to tab this. This is the only version online that is close to the song. This is my all time favorite Buckethead song. Thanks man.

0 reply
Livingtime 102 wrote on May 16 2010, 03:24 am

awesome tab 5 stars
but solo :(

guest
You may want to rate the tab now too:
select rating
Wanna post a correction for this tab? Suggest correction