Oops, an error
Loading. Please wait.

Angel Monster Tab

version 1
version 1

Whole song

Interactive

29,556 views 36 this week
12 commentsread comments
1 2 3 4 5
accurate
x 16
add to favorites
launch autoscroll
font size
0
reset
how to read this tab
guitar tuner
Autoscroll
slow
fast
+/-
esc
set tempo
stop
Help us to improve Ultimate-Guitar.com Take our survey!
×
Author
Difficulty
Tuning
intermediate
D# G# C# F# A# D#
 RHYTHM
                  It looks like a lot but all you
Fig 1 (0:00-0:20) really need to know is that
Fig 2 (0:21-0:42) Buckethead alternates between
Fig 3 (0:43-1:04) Fig 2 and Fig 5 throughout
Fig 4 (1:05-1:25) most of the song.  So if you don't
Fig 2 (1:26-1:36) want to put a lot of time into
Fig 5 (1:37-1:45) this song just practice those two.
Fig 2 (1:48-2:10)
Fig 5 (2:11-2:19)
Fig 2 (2:23-2:43)
Fig 5 (2:44-2:54)
Fig 1 (2:55-3:16)
Fig 4 (3:17-3:37)
Fig 2 (3:38-3:48)
Fig 5 (3:49-4:00)
Fig 2 (4:01-4:21)
Fig 5 (4:22-4:30)
Fig 2 (4:31-4:50)
Fig 5 (4:51-4:58)

      Fig 1
e----------3---------3---------3--------3----|
B----------x---------x---------x--------x----|
G-------5----------5---------5--------5------|
D-----2----------3---------2--------3--------|
A---0----------0---------0--------0----------|
E--------------------------------------------|

      Fig 2
e----------3-----------------3------------------3-----------------3--------|
B--------5-----0-----------5------0-----------5-----0-----------5-----0----|
G------0---------5-------0----------5-------0---------5-------0---------5--|
D----2-------3---------2--------3---------2-------3---------2-------3------|
A--0-----------------0------------------0-----------------0----------------|
E--------------------------------------------------------------------------|


      Fig 3
e-----0-------0------0-------|
B-----0-------0------0-------|
G-----5-------7------5-------|
D-----7-------5------3-------|
A-----0-------0------0-------|
E----------------------------|


      Fig 4
e--------0-------0-------0-----|
B------0-------0-------0-------| I'm not sure
G----5--5----7--7----5--5------| about this figure.
D-----7-------5-------3--------| I think he's doing
A---0-------0-------0----------| some acoustic picking
E------------------------------| at this part though.


      Fig 5
e-----------7----------------7-----------------7-----------------7-------------|
B---------0-------0--------0-------0---------0-------0---------0-------0-------|
G-------5-------7--------5-------7---------5-------7---------5-------7---------|
D-----7-------5--------7-------5---------7-------5---------7-------5-----------|
A---0----------------0-----------------0-----------------0---------------------|
E------------------------------------------------------------------------------|


                                 LEAD

    0:32                   0:43                                  0:51
e-------------------------------------------10-17-15-10h12-------5-5p3---|
B-----10~----13p12-----------10~---10-12-11------------------------------|
G---9--------------12p9----9---------------------------------------------|
D------------------------------------------------------------------------|
A------------------------------------------------------------------------|
E------------------------------------------------------------------------|

     0:53                             1:04
e-------------------------------------12b~---15-12---12p10p8h10--12s10-10---|
B------10~---10-12-13--15-13p12-12---------------------------------------10-|
G----9----------------------------12----------------------------------------|
D---------------------------------------------------------------------------|
A---------------------------------------------------------------------------|
E---------------------------------------------------------------------------|

      1:16                            1:26                             1:34
e------------15-----------------------12~--10-8-10s12--12p10-8h10h12--13p12h13p12---10s12~-10-8-10s12---12-12s15-13-12-10-12-|
B-----12~h13---13~--13p12-12-------------------------------------------------------------------------------------------------|
G---------------------------12s14--------------------------------------------------------------------------------------------|
D----------------------------------------------------------------------------------------------------------------------------|
A----------------------------------------------------------------------------------------------------------------------------|
E----------------------------------------------------------------------------------------------------------------------------|
      1:46                            1:50
e----17-15-17------------------------------------------------------|
B-------------15h17------------------------------------------------|
G-------------------16h17-16-14-------7s9~--7p5h7~-7h9-7-5-5h7p5---|
D----------------------------------------------------------------7-|
A------------------------------------------------------------------|
E------------------------------------------------------------------|

     1:59                      2:04
e------------------------10p8----------------------------|
B-------------------8h10-------12h13p12-10-10------------|
G--------------------------------------------------------|
D----10-12-10-12s14--------------------------------------|
A--------------------------------------------------------|
E--------------------------------------------------------|

    2:06-2:18
e---15p13p12h13p12h13p12h13p12h13p12h13p12h13p12p13p12h13p12h13p12h13p12h13p12~~--------|
B---------------------------------------------------------------------------------------|
G---------------------------------------------------------------------------------------|
D---------------------------------------------------------------------------------------|
A---------------------------------------------------------------------------------------|
E---------------------------------------------------------------------------------------|
     2:19              2:24
e-------12--17-15s5-------------------------------|
B----10-------------------------------------------|
G----------------------9-10-----------------------|
D---------------------------10--------------------|
A-------------------------------------------------|
E-------------------------------------------------|

Thats all for the lead. I'll try to tab out
the rest when i get an electric. suggestions are welcome.
Suggest correction
What's this?
You can suggest a correction to this tab. Community and Mods will review your correction and vote to approve or reject it.
comments
print report bad tab
12 comments total. Showing first comments.
0 reply
bingeandletgo 3,620 wrote on May 7 2008, 08:33 pm

Perfect, but very short. I would like to contribute the beginning part of the lead:

E----------------------------------------------------10--17
B----10------13p12--------------------10----10h11h12-------
G--9--------------------12p9--------9----------------------


Sorry I couldn't tab more. Anyone who wants to tab it, start with this.

-1 reply
bingeandletgo 3,620 wrote on May 7 2008, 08:35 pm

sry it goes
E-----------10--17
B--10h12h13-------

0 reply
toine 4,086 wrote on August 26 2008, 11:56 am

doesn't the first chord sound more like this?
E---------3----
B---------1----
G------4-------
D----2---------
A--0-----------
E--------------

and like that changing the 2 to 3 etc

guest
You may want to rate the tab now too:
select rating
Please do not post tabs as comments. Select "correction" instead!