Oops, an error
Loading. Please wait.

Aunt Suzie Tab

version 1
version 1

Intro

Whole song

Interactive

5,714 views 39 this week
no commentswrite comment
1 2 3 4 5
not so good
x 3
add to favorites
launch autoscroll
font size
0
reset
how to read this tab
guitar tuner
Tab Pro tools
  • play this tab
  • loop segment
  • change instrument
  • show fretboard
  • metronome
Autoscroll
slow
fast
+/-
esc
set tempo
stop
Contributor
This covers a part of the song. I'll update it whenever I figure out more parts of the song.


Guitar 2 plays this section in the background. Repeats until the end of the song.
e|--------------------|
B|--------------------|
G|------0---------11--|
D|----9---9----12-12--|x3
A|--7-------10----10--|
E|--------------------|

e|-------------------|
B|-------------------|
G|----7---7-----0----|
D|------5-----5---5--|
A|--5-------3--------|
E|-------------------|


Guitar 1
0:00
e|--12--------------(12)--------12--------------------------|
B|----------------------15-/12-----15-----------------------|
G|-----14p12-14-14---12--------(12)---14-14h16-14\12-11-12--|
D|----------------------------------------------------------|
A|----------------------------------------------------------|
E|----------------------------------------------------------|

e|----------------------------------|
B|----------------------------------|
G|--/11-----------------------------|
D|------14p12-12h14-12--------------|
A|---------------------12----12h14--|
E|------------------------15--------|

0:12
e|------------------------------------------------------------------|
B|------------------------------------------------------------------|
G|----------12-11/12-11/12---------------------------------------9--|
D|--12-(14)----------------12----12h14-12--------------9h12-10-9----|
A|------14--------------------14--------------12-14-12--------------|
E|-----------------------------------------15-----------------------|

e|----------------------------12-14-14b15-14/15--|
B|-------------12-10h12-10h12--------------------|
G|--11b12r11-9-----------------------------------|
D|-----------------------------------------------|
A|-----------------------------------------------|
E|-----------------------------------------------|

e|--15b17-15p14-14h15p14-----------------|
B|-----------------------15--------------|
G|--------------------------12-11--------|
D|--------------------------------14-12--|
A|---------------------------------------|
E|---------------------------------------|

0:24
e|-------------------------------------------------17b18r17--|
B|------------------------------15p12-12-12h13p12------------|
G|------------------------11/12------------------------------|
D|--12/14-12-------------------------------------------------|
A|-----------14----12h14-------------------------------------|
E|--------------15-------------------------------------------|

e|--15p14-14p12-12-------12-12---------------|
B|-----------------15-15-------15-12---------|
G|-----------------------------------14-14\--|
D|-------------------------------------------|
A|-------------------------------------------|
E|-------------------------------------------|

e|--12-12--------------------------------|
B|--------15-13-12-13-15----15-----------|
G|-----------------------12----12-11/12--|
D|---------------------------------------|
A|---------------------------------------|
E|---------------------------------------|

0:36
e|----------------------------------------------------------------------|
B|----------------------------------------------------------------------|
G|----------------------------------------------------------------------|
D|--14p12-14-16-16--14p12----12-14--14p12-14-16-16--14p12----12---------|
A|------------------------14------------------------------14----/12-----|
E|------------------------------------------------------------------15--|

e|-------------------------------------------------|
B|--------------------------------------------/12--|
G|-----------------------11-11h12p11----11h12------|
D|-----------12-12h14-14-------------14------------|
A|--12h14-14---------------------------------------|
E|-------------------------------------------------|

e|--12----12-------------------|
B|-----15----/12-/12-----------|
G|-------------------12-11b12--|
D|-----------------------------|
A|-----------------------------|
E|-----------------------------|

0:49
e|------------------------------------------------|
B|------------------------------------------------|
G|--------------------------12/11-----------------|
D|--/14---------------------------12----12-12h14--|
A|-------12----12-12/14--14----------14-----------|
E|----------15------------------------------------|

e|-------------------------------------------------------------------|
B|-----15-15-15------------------------------------------------------|
G|--12-12-12-12-12-11------------------------------------------------|
D|--------------------14-12-14-12----12h14-12-------------12-12------|
A|--------------------------------14----------12----12-14--------15--|
E|-----------------------------------------------15------------------|

1:01
e|-----------------------------------------|
B|-------------------------------12h13p12--|
G|--11b12r11-----------11-12--14-----------|
D|-----------14-----14---------------------|
A|---------------14------------------------|
E|-----------------------------------------|

e|--17b19-17p15-17p15-14--14h15-14-12----12-12---------|
B|------------------------------------15--------15-12--|
G|-----------------------------------------------------|
D|-----------------------------------------------------|
A|-----------------------------------------------------|
E|-----------------------------------------------------|

e|------------------------------------------------|
B|-----12-13-15-15-13-12-13-----------------------|
G|--14----------------------12--------------------|
D|-----------------------------14p12-14----12h14--|
A|--------------------------------------14--------|
E|------------------------------------------------|

1:13
e|-----------15-15p14-12-12-----------------------------------------------------|
B|------/12-----------------12-15-15/17---15p12-----------15--------------------|
G|--12------------------------------------------12-12--11----11-12-11----11-12--|
D|--------------------------------------------------------------------14--------|
A|------------------------------------------------------------------------------|
E|------------------------------------------------------------------------------|

e|-----------------------------------------------------14-14p10--|
B|--15-------12-------15-------12-15-------15-12-13-12-----------|
G|-----11-12----12-11----11-12-------11-12-----------------------|
D|---------------------------------------------------------------|
A|---------------------------------------------------------------|
E|---------------------------------------------------------------|

e|--19-19-19p15-----------------|
B|--------------19-15-----------|
G|--------------------14----14--|
D|-----------------------16-----|
A|------------------------------|
E|------------------------------|

1:25
e|--------12----12-12---------------------------------|
B|-----------15---------------------------------------|
G|--11/12--------------14/16-14h16p14-12-11h12--------|
D|---------------------------------------------14-12--|
A|----------------------------------------------------|
E|----------------------------------------------------|

e|-------------------------------------------|
B|-------------------------------------------|
G|-------------------------------------------|
D|--14/16--14-12----12h14-12-----------------|
A|---------------14----------12----12h14-----|
E|------------------------------15-------12--|

e|----------------------------------------------------------------------|
B|----------------------------------------------------------------------|
G|--------------------12-11h12p11----11b12r11-11-----12-11--------------|
D|--------------12-14-------------14-------------12--------14-12----12--|
A|--------12-14--------------------------------------------------14-----|
E|--12-15---------------------------------------------------------------|

1:38
e|----------------------------------------|
B|----------------------------------------|
G|----------------------------------------|
D|--12/14-12-----------------------12-14--|
A|-----------14/12-10-----10-12/14--------|
E|---------------------12-----------------|

e|------------------------------------12-14-14b15-15-15r14-----------------------|
B|---------------------------------12----------------------15--------------------|
G|--14b15-14-12-14-14/16-12-14-12-----------------------------12-11-12-14-14/16--|
D|-------------------------------------------------------------------------------|
A|-------------------------------------------------------------------------------|
E|-------------------------------------------------------------------------------|

1:50
e|--------------19-----------------------|
B|--19b20r19p17----17--------------------|
G|--------------------19-19/21-----------|
D|-----------------------------19-19/21--|
A|---------------------------------------|
E|---------------------------------------|

e|-----------------------------------------------------------|
B|-----------------------------------------------------------|
G|--16p14-16p14-12/11—12p11----------------11h12-14----------|
D|--------------------------14-------12-14-----------7/17/0--|
A|-----------------------------12-14-------------------------|
E|-----------------------------------------------------------|
comments
We did not receive enough feedback on this tab! Please rate:
print report bad tab
1 2 3 4 5
I want to post or [tab]
guest
You may want to rate the tab now too:
select rating
Please do not post tabs as comments. Select "correction" instead!