Oops, an error
Loading. Please wait.

Bachethead tab

175 views 15 this week
4 commentsread comments
1 2 3 4 5
1 last vote to show rating
add to favorites
×
Save as Personal and add changes to this tab that will be seen only by you. Learn more ›
×
You can save this tab as Personal to edit and correct it or add notes. All changes will be seen only by you. Learn more »
launch autoscroll
font size
0
reset
how to read this tab
guitar tuner
edit
Autoscroll
slow
fast
+/-
esc
set tempo
stop


'BACHETHEAD'
by Buckethead


tabbed by:    DropDeee
tuning:       Standard
video:        https://www.youtube.com/watch?v=gCPb_IUVnB0


    ***   this is for the lead guitar only, not the underlying chords   ***





e|--3---3---3-----------3-4(\)--------|-6---6---6--g6/8-6--4-3----3-4p3--------|
B|--------------6--4--6-------4p3-----|------------------------6--------6--4---|
G|--------------------------------5-3-|----------------------------------------|
D|------------------------------------|----------------------------------------|
A|------------------------------------|----------------------------------------|
E|------------------------------------|----------------------------------------|

e|--3---3---3-----------3-4-\---------|----------------------------------------|
B|--------------6--4--6-------4-3-----|--4---4---4---3-4-3---6-----------------|
G|--------------------------------5-3-|--------------------5-----3-------------|
D|------------------------------------|----------------------------------------|
A|------------------------------------|----------------------------------------|
E|------------------------------------|----------------------------------------|

e|--6---6---6(/)8-6-----8---6---------|---------|-------4-|---3-------------------|
B|------------------9-8-------9-8-6---|---9-8-6-|---5-6---|-----5-5-6\-----(6)(8)-|
G|------------------------------------|---------|---------|-3-----------(5)-------|
D|------------------------------------|-8-------|-6-------|-----------------------|
A|------------------------------------|---------|---------|-----------------------|
E|------------------------------------|---------|---------|-----------------------|



 00:27

e|--4---3-----------------3-|4p3-------------|--3------------------------------|
B|------------------3h4-6---|----6-4-3-4-6---|--------4-----3------------------|
G|--------------3h5---------|--------------5-|4-----5-------------4-5----------|
D|----------0-3-------------|----------------|------------3-----5--------------|
A|--------------------------|----------------|---------------------------------|
E|--------------------------|----------------|---------------------------------|


         stacatto
e|----------v-----------------------|-------------3p1-4p3--6----3-p-1---|
B|--4---4---4---3---3h4-6---4p3-----|---------6p4-----------------------|
G|----------------5-------------5-3-|-5-7-8p7---------------------------|
D|----------------------------------|-----------------------------------|
A|----------------------------------|-----------------------------------|
E|----------------------------------|-----------------------------------|

         stacatto
            v
e|--3---3---3---------3-4-----------|--6---6---6---8-6-4p3---3-4p3------|
B|--------------6-4-6-------4-3-----|----------------------6-------6-4--|
G|------------------------------5-3-|-----------------------------------|
D|----------------------------------|-----------------------------------|
A|----------------------------------|-----------------------------------|
E|----------------------------------|-----------------------------------|

e|--3---3---3-6-4-3-----------|-8-6----------------6-|-3(4-trill)-------------------|
B|------------------6-4-3-----|-----9-8-6------------|--------------6-\4---4--------|
G|------------------------5---|-----------8-7-5------|------------------------------|
D|--------------------------8-|-----------------8----|------------------------------|
A|----------------------------|----------------------|------------------------------|
E|----------------------------|----------------------|------------------------------|




 01:07

e|--3-1-3---------------------------|3----------------------|
B|----------------1--3--4-3-4-6-4-6-|----------1--3--4------|
G|----------3--3--------------------|----3--3---------------|
D|----------------------------------|-----------------------|
A|----------------------------------|-----------------------|
E|----------------------------------|-----------------------|

e|--3-1-3---------------------------|3----------------------|
B|----------------1--3--4-3-4-6-4-6-|----------1--3--4\-----|
G|----------3--3--------------------|----3--3---------------|
D|----------------------------------|-----------------------|
A|----------------------------------|-----------------------|
E|----------------------------------|-----------------------|


            slightly mute these notes

e|----------3--4--3-----3--6--4-----3-----------------------|
B|--4---4-6----------6-----------6-----6-4-3-4-6-3-4--------|
G|----------------------------------------------------------|
D|----------------------------------------------------------|
A|----------------------------------------------------------|
E|----------------------------------------------------------|

e|----------3--4--3-----3--6--4-----3-----------------------|
B|--4---4-6----------6-----------6-----6-4-3-4-6-3-4--------|
G|----------------------------------------------------------|
D|----------------------------------------------------------|
A|----------------------------------------------------------|
E|----------------------------------------------------------|

e|--3-1-3---------------------------|3----------------------|
B|----------------1--3--4-3-4-6-4-6-|----------1--3--4------|
G|----------3--3--------------------|----3--3---------------| x 2
D|----------------------------------|-----------------------|
A|----------------------------------|-----------------------|
E|----------------------------------|-----------------------|



 01:40

e|--3--3--3--------3-4-----------|-6--6--6--8-6-4-3---3-4-3-------|
B|-----------6-4-6-------4-3-----|------------------6-------6-4---|
G|---------------------------5-3-|--------------------------------|
D|-------------------------------|--------------------------------|
A|-------------------------------|--------------------------------|
E|-------------------------------|--------------------------------|

e|--3--3--3--------3-4-----------|--------------------------------|
B|-----------6-4-6-------4-3-----|-4--4--4--3-4-3-----------------|
G|---------------------------5-3-|----------------5-2---3~~-------|
D|-------------------------------|--------------------------------|
A|-------------------------------|--------------------------------|
E|-------------------------------|--------------------------------|


 
 [Outro]
                                                   let ring
e|----------3--4--3-----3--6--4-----3--------------v--------|
B|--4---4-6----------6-----------6-----6-4-3-4-6-3-4--------|
G|----------------------------------------------------------|
D|----------------------------------------------------------|
A|----------------------------------------------------------|
E|----------------------------------------------------------|

                                                   let ring
e|----------3--4--3-----3--6--4-----3--------------v--------|
B|--4---4-6----------6-----------6-----6-4-3-4-6-3-4----\---| play this 
G|----------------------------------------------------------| part in
D|----------------------------------------------------------| triplets
A|----------------------------------------------------------| if you can!
E|----------------------------------------------------------|






************************************

| /   slide up
| \   slide down
| h   hammer-on
| p   pull-off
| ~   vibrato
| g   grace note

************************************      
Suggest correction
Creating personal tab
Creating personal tab
You can edit any tab online and save it as your Personal.

You can edit, replace or remove any tab part or add personal notes – all changes will be seen only by you.

Personal tabs can be accessed anytime from any device, even offline.
Learn more »
Give kudos to tab author, rate the tab!
1 2 3 4 5
comments
print report bad tab
4 comments total. Showing first comments.
0 reply
ajanddino 934 Jan 28, 2017 12:07 PM

Awesome tab.

0 reply
bennettspink1 30 Feb 11, 2017 09:05 AM

Awesome work DropDeee!

guest
You may want to rate the tab now too:
select rating
Wanna post a correction for this tab? Suggest correction