Oops, an error
Loading. Please wait.

Ballad Of Buckethead Tab

version 1
version 1

Whole song

Interactive

12,739 views 3 this week
15 commentsread comments
1 2 3 4 5
accurate
x 10
add to favorites
launch autoscroll
font size
0
reset
how to read this tab
guitar tuner
Autoscroll
slow
fast
+/-
esc
set tempo
stop
Help us to improve Ultimate-Guitar.com Take our survey!
×
Author
|---------13----13-----------|-(13)----------------|
|-13b15------13------13b15---|-(13)b15-------------|
|----------------------------|---------------------|
|----------------------------|---------------------|
|----------------------------|---------------------|
|----------------------------|------------20b21///-|

                                            T            T
|---------14h18p14h18p14--------------14h18h22p18p14h18h22p18p14----------|
|-------15--------------15----------15--------------------------15--------|
|-----16------------------16------16------------------------------16------|
|---17----------------------17--17----------------------------------17----|
|-17--------------------------17--------------------------------------17--|
|-------------------------------------------------------------------------|


                                            T           T
|---------14h18p14h18p14--------------14h18h22p18p14h18h22p18p14----------|
|-------15--------------15----------15--------------------------15--------|
|-----16------------------16------16------------------------------16------|
|---17----------------------17--17----------------------------------17----|
|-17--------------------------17--------------------------------------17--|
|-------------------------------------------------------------------------|


                T                 T                 T                T  T
|---------14h18-22-18-14p10h14-18-22-18-14p10h14-18-22-18-14p10S9h13-17-21-|
|-------15-----------------------------------------------------------------|
|-----16-------------------------------------------------------------------|
|---17---------------------------------------------------------------------|
|-17-----------------------------------------------------------------------|
|--------------------------------------------------------------------------|


   T 
|-17-13p9-13p9---------------|
|--------------11-----------|
|----------------------------|
|----------------------------|
|----------------------------|
|-------------------19b20///-|


W/Delay (set around 500 with half feedback)
   T    T     T     T    T     T     T     T     T     T     T     T
|-----------------------------------------------------------------------|
|-----------------------------------------------------17p11-19p13-21p15-|
|-----------------------------------16p10-18p12-20p14-------------------|
|------------------15p9-17p11-10p13-------------------------------------|
|-14p8-16p10-18p12------------------------------------------------------|
|-----------------------------------------------------------------------|


   T     T     T     T     T     T     T     T     T     T     T     T 
|-18p12-20p14-22p16--------------------------------------------------------|
|-------------------------------------16p12-18p14-20p16-15p11-17p13-19p15--|
|-------------------15p11-17p13-19p15--------------------------------------|
|--------------------------------------------------------------------------|
|--------------------------------------------------------------------------|
|--------------------------------------------------------------------------|

   T     T     T              T  T                 T                 T
|-18-12-20-14-22-16p14h16h18-20-22-20-14h16h18h20-22-20p14h16h18h20-22-20-|
|-------------------------------------------------------------------------|
|-------------------------------------------------------------------------|
|-------------------------------------------------------------------------|
|-------------------------------------------------------------------------|
|-------------------------------------------------------------------------|

               T              
|-13-15-17-19-21-19-12-14-16-18-20-18--18~~~~--|
|----------------------------------------------|
|----------------------------------------------|
|----------------------------------------------|
|----------------------------------------------|
|----------------------------------------------|
(here i kinda steer off and improvise)
|----------------------------------------------------------------13-14-12-|
|---------------------------------------------13-15-16-18------15---------|
|----------------------------------13-15-17-19-----------13--13-----------|
|-----------------------14-15-16-17------------------------15-------------|
|------------13-14-16-17--------------------------------------------------|
|-13-14-16-17-------------------------------------------------------------|
                                                           T
|-------12------14------10----------16/19-19-18------------------------14-|
|-----12------14------11--11------15-----------18-17--------------14-14---|
|---14------14------12------12--14------------------17-16-22-16-14--------|
|-15------15------13----------13------------------------------------------|
|-------------------------------------------------------------------------|
|-------------------------------------------------------------------------|
   T              T              T              T              T
|-22p14h15h17h18-21p14h15h17h18-22p14h15h17h18-21p14h15h17h18-22p14h15h17h18-|
|----------------------------------------------------------------------------|
|----------------------------------------------------------------------------|
|----------------------------------------------------------------------------|
|----------------------------------------------------------------------------|
|----------------------------------------------------------------------------|
   T       T      T         T  T  T                  T  T  T
|-22p0h14--------------------------------------------------------------------|
|---------21p0h13------------------------------------------------------------|
|----------------20p0h12---22-21-20--18/----16--16b22-21-20-r-16------------|
|----------------------------------------------------------------------------|
|----------------------------------------------------------------------------|
|----------------------------------------------------------------------------|
               T             T             T  X6               T         X6
|-----------------------------16h17h18h19-22----|-14h16h18h20-22----------|
|---------------15h16h17h18-22------------------|-------------------------|
|o14h15h16h17-22-------------------------------o|o-----------------------o|
|o---------------------------------------------o|o-----------------------o|
|-----------------------------------------------|-------------------------|
|-----------------------------------------------|-------------------------|
   T             T             T             T                  T  T  T
|-22-18p17p16p15----------------------------------------------------------|
|---------------21-18p17p16p15--------------------------------------------|
|-----------------------------20-18p17p16p15------------------------------|
|-------------------------------------------19-18p17p16p15--15b-17-18-17r-|
|-------------------------------------------------------------------------|
|-------------------------------------------------------------------------|

(shred time)(delay off)
|-----------------------------------------------------------------------------------------------------------17|
|-------------------------------------------------------------------------------15------------------------16--|
|----------------------------------------------------------------12-----------14--14--------------13-14-15----|
|--------------------------------------------------------12-14-15--12-13-16-13------//-14-15-17-19------------|
|-5-------7-------9---------------------------11-12-13-14-----------------------------------------------------|
|--6-8-10--9-10-12-11-12-14--12-14-16-11-13-15----------------------------------------------------------------|

|---------------------------------14-16-18-20-18-16-14--------------12--12|
|------------------------14-16-18---------------------13----------13--12--|
|----------------14-16-17-------------------------------14------14--------|
|--------15-16-17-----------------------------------------15--15----------|
|---15-16---------------------------------------------------16------------|
|-16----------------------------------------------------------------------|

|-22-18-20-16-18-14--------22b26r22----------------------------14-12-10~~-|
|------------------22-22-22-------------------------14-15-16-17-----------|
|-------------------------------------------16-19-22----------------------|
|-----------------------------------16-18-17------------------------------|
|-------------------------------------------------------------------------|
|-------------------------------------------------------------------------|

|-22b27r22----------------------------------------------------------------|
|-----------22b27r22------------------------------------------------------|
|--------------------20-18-16---------------------------------------------|
|----------------------------19-17-15--19-15---19-15--19-15--19-15---/----|
|-------------------------------------------17------17-----17-----17-/----|
|-------------------------------------------------------------------------|

|22~~~~~~~~---------3~~~~~~~~---------------------------------------------|
|-------------------2~~~~~~~~---------------------------------------------|
|-------------------0~~~~~~~~---------------------------------------------|
|-------------------x~~~~~~~~~--------------------------------------------|
|-------------------2~~~~~~~~---------------------------------------------|
|-------------------3~~~~~~~~---------------------------------------------|

This is my first guitar tab, tell me how you like it! :}
                 ------
Suggest correction
What's this?
You can suggest a correction to this tab. Community and Mods will review your correction and vote to approve or reject it.
comments
print report bad tab
15 comments total. Showing first comments.
0 reply
kmeister 107 wrote on November 1 2006, 01:00 pm

Who The F##k could play this

0 reply
stimpytheturtle 287 wrote on November 1 2006, 03:00 pm

tom from myspace, lol

0 reply
Mcassidy42 637 wrote on January 3 2007, 08:00 am

Lol, Tom can do anything he wants!

guest
You may want to rate the tab now too:
select rating
Please do not post tabs as comments. Select "correction" instead!