Oops, an error
Loading. Please wait.

Beestro Flower Tab

997 views 3 this week
no commentswrite comment
1 2 3 4 5
please rate
add to favorites
launch autoscroll
font size
0
reset
how to read this tab
guitar tuner
Autoscroll
slow
fast
+/-
esc
set tempo
stop
Help us to improve Ultimate-Guitar.com Take our survey!
×
Author
BEESTRO FOWLER

Tabbed by: Aaron McMahon
Email: otakugeek@hotmail.com


Band: Buckethead
Album: Bermuda Triangle
Song: Beestro Fowler

Tuning: Standard

not perfect, but close. some parts were harder to tab due to the electronic noises 
and heavy delay.


e|-----15-15-15-16-11-11-------15-15-15-16-11-11----------------|
B|--13-------------------13-13-------------------13-------------|
G|0------------------------------------------------------------0|
D|0------------------------------------------------------------0|
A|--------------------------------------------------------------|
E|--------------------------------------------------------------|

e|--------------------------------------------------------------|
B|--------16-16-16-18-15-15-------16-16-16-18-15-15-------------|
G|0-13-13-------------------13-13------------------------------0|
D|0------------------------------------------------------------0|
A|--------------------------------------------------------------|
E|--------------------------------------------------------------|

e|---------------------------------------------------------------------------|
B|---------------------------------------------------------------------------|
G|-------12-12-12-13-10-10-------12-12-12-13-10-10-------12-12-12-13-10-10---|
D|-10-10-------------------10-10-------------------10-10---------------------|
A|---------------------------------------------------------------------------|
E|---------------------------------------------------------------------------|

e|-----------------------------------------------------------------------------------|
B|----------------11-11-9------------------------------------------------------------|
G|-------12-12-12---------------12-12-12-13-10-10-----8-8-8-10-7-7-----8-8-8-10-7-7--|
D|-10-10------------------10-10-------------------6-6--------------6-6---------------|
A|-----------------------------------------------------------------------------------|
E|-----------------------------------------------------------------------------------|

e|---------------------------------------------------------------------------|
B|---------------------------------------------------------------------------|
G|-------12-12-12-13-10-10-------12-12-12-13-10-10---------------------------|
D|-10-10-------------------10-10---------------------------------------------|
A|-----------------------------------------------------10-10-10-11-8-8-------|
E|-------------------------------------------------8-8-----------------------|

e|------------------------------------------------------------------------------|
B|------------------------------------------------------------------------------|
G|------------------------------------------------------------------------------|
D|--------------------8---------------------------------------------------------|
A|-----10-10-10-11-11---11-----10-10-10-11-8-8-----6-6-6-8-5-5-----6-6-6-8-5-5--|
E|-8-8---------------------8-8-----------------4-4-------------4-4--------------|

e|---------------------------------15-15-15-16-13-13-------15-15-15-16-13-13--|
B|---------------------------13-13-------------------13-13--------------------|
G|--------12-12-12-13-10-10---------------------------------------------------|
D|--10-10---------------------------------------------------------------------|
A|----------------------------------------------------------------------------|
E|----------------------------------------------------------------------------|

e|-------15-15-15-18-11-16-------15-15-15-16-13-13-------15-15-15-16-13-13---|
B|-13-13-------------------13-13-------------------13-13---------------------|
G|---------------------------------------------------------------------------|
D|---------------------------------------------------------------------------|
A|---------------------------------------------------------------------------|
E|---------------------------------------------------------------------------|

e|---------------------------------------------------------------------------|
B|-------16-16-16-18-15-15-------16-16-18-15-15---15----------15-------------|
G|-13-13-------------------13-13---------------------13-13-13----13-13-13----|
D|---------------------------------------------------------------------------|
A|---------------------------------------------------------------------------|
E|---------------------------------------------------------------------------|

e|---------------------------------------------------------------------------|
B|-15-13-13----15-13-13----15----------13----------13------------------------|
G|----------13----------13----13-13-13----12-12-12----12-12-12---------------|
D|---------------------------------------------------------------------------|
A|---------------------------------------------------------------------------|
E|---------------------------------------------------------------------------|

e|-----------------------------------------------------------15-15-15-16-13-13--|
B|-15-15-------15-15-15b16-15--13-13-------13-13-------13-13--------------------|
G|-------12-12-----------------------12-12-------12-12--------------------------|
D|------------------------------------------------------------------------------|
A|------------------------------------------------------------------------------|
E|------------------------------------------------------------------------------|

e|-------15-15-15-16-13-13-------15-15-15-16-13-13-------15-15-15-16-11-11---|
B|-13-13-------------------13-13-------------------13-13---------------------|
G|---------------------------------------------------------------------------|
D|---------------------------------------------------------------------------|
A|---------------------------------------------------------------------------|
E|---------------------------------------------------------------------------|

e|--------------------------------------------------------15-15-15-16-16-13-13---|
B|-------16-16-16-18-15-15-------16-16-16-18-15-15--13-13------------------------|
G|-13-13-------------------13-13-------------------------------------------------|
D|-------------------------------------------------------------------------------|
A|-------------------------------------------------------------------------------|
E|-------------------------------------------------------------------------------|

e|---------------------------------------------------------|
B|-13-13-13-13---------------------------------------------|
G|-------------12-12-12-12--------------15---15------------|
D|-------------------------13-13-12-12----12--12-----------|
A|------------------------------------------------15-15----|
E|---------------------------------------------------------|

e|----------------------------------------------------------------------------------------------|
B|-13-13-13-13---------------------------------------------------------------------------15-15--|
G|-------------12-12-12-12-------------15-15---------------------15-15-13-12-------15-15--------|
D|-------------------------13-13-12-12-------12------------13-13-------------13-13--------------|
A|----------------------------------------------15---11-11--------------------------------------|
E|----------------------------------------------------------------------------------------------|

e|------------------------------------------------------------------15-15-15-16-10-10---|
B|-13-11-------------------------------------15-15-15-15b(16)---13-13-------------------|
G|-------------------15-15-13-12-------15-15--------------------------------------------|
D|-------------13-13-------------13-13--------------------------------------------------|
A|-------11-11--------------------------------------------------------------------------|
E|--------------------------------------------------------------------------------------|

e|-------15-15-15-16-10-10-------15-15-15-16-10-10-------15-15-15-16-10-10---|
B|-13-13-------------------13-13-------------------13-13---------------------|
G|---------------------------------------------------------------------------|
D|---------------------------------------------------------------------------|
A|---------------------------------------------------------------------------|
E|---------------------------------------------------------------------------|

e|-------------------------------------------------------------------------------------------------|
B|-------13-13-15-15-15----16-16----15-15-15-13-11-------13-13-15-15-------16-16----15-15-15-15b(16|
G|-13-13----------------13-------13----------------13-13-------------13-13-------13----------------|
D|-------------------------------------------------------------------------------------------------|
A|-------------------------------------------------------------------------------------------------|
E|-------------------------------------------------------------------------------------------------|

e|-------15-15-18-18-16-15-------15-15-19-19-19-19-19b(20)--|
B|-13-13-------------------13-13----------------------------|
G|----------------------------------------------------------|
D|----------------------------------------------------------|
A|----------------------------------------------------------|
E|----------------------------------------------------------|

e|-20-20-15-15------------------------------------------|
B|-------------16-16-13-13------------------------------|
G|-------------------------12-12------------------------|
D|-------------------------------13-13------------------|
A|-------------------------------------15-15-15-15------|
E|------------------------------------------------------|


| b  bend note
| () bend to
| /  slide up
| \  slide down
| h  hammer-on
| p  pull-off
| ~  vibrato
| +  harmonic
| x  Mute note
===============================================================================
Suggest correction
Give kudos to tab author, rate the tab!
1 2 3 4 5
comments
print report bad tab
guest
You may want to rate the tab now too:
select rating
Please do not post tabs as comments. Select "correction" instead!