Oops, an error
Loading. Please wait.

Best Regards Blue Disc Track 1 Tab

version 1
version 1

Solo

1,623 views 3 this week
no commentswrite comment
1 2 3 4 5
excellent!
x 5
add to favorites
launch autoscroll
font size
0
reset
how to read this tab
guitar tuner
Autoscroll
slow
fast
+/-
esc
set tempo
stop
Help us to improve Ultimate-Guitar.com Take our survey!
×
Author
Difficulty
advanced
----------------------------------------
Buckethead  - Best Regard Blue: Track 1
----------------------------------------
Tabbed by: Markus Rafferty
Email: stairsleadingup@gmail.com

  54 secs
        ~~     ~~     ~~      ~
|-----------------------------------------------------------------------16---|
|------------14-----12----------------------------------------------19-------|
|-----11--------------------13----14--9--9/11~---14/16-16/18~---18-----------|
|-/11------------------------------------------------------------------------|
|----------------------------------------------------------------------------|
|----------------------------------------------------------------------------|

           ~     ~     ~          ~~
|-16h17--16------------------------------------------------------------------|
|--------------------17---17/19----------------------------------------------|
|--------------18---------------18----18-\16--16~---\14-14-14~---14-h16--16/-|
|----------------------------------------------------------------------------|
|----------------------------------------------------------------------------|
|----------------------------------------------------------------------------|

    ~        ~                                                      ~~
|----------------------------------------------------------------------------|
|----------------------------------------------------------------------------|
|-18---19--18----11--11---/16---16--b18r16--14h16p14--13--13--14-------------|
|-----------------------------------------------------------------14------11-|
|----------------------------------------------------------------------------|
|----------------------------------------------------------------------------|

                             ~~                                       ~
|----------------------------------------------------------------------------|
|----------------------------------------------------------------------------|
|----------------------------------------------------14---16b18~-----18-r16--|
|--14--11--14h16--14---------------------------------------------------------|
|---------------------/14--12-------/19---16--16~----------------------------|
|----------------------------------------------------------------------------|

              ~                     ~                                     ~
|----------------------------------------------------------------------------|
|----------------------------------------------------------------------------|
|-14--16/18\16----14-p13--13-h14---------------------------------------------|
|---------------------------------14----11--14--14h16------------11b12--11---|
|------------------------------------------------------14--14~---------------|
|----------------------------------------------------------------------------|

                                           ~                    ~
|----------------------------17--16--17--------------------------------------|
|------------------------17--------------17----17--19------------------------|
|----14-14-14/16--16/18--------------------------------16/18--18----16\14-14-|
|----------------------------------------------------------------------------|
|----------------------------------------------------------------------------|
|----------------------------------------------------------------------------|

                  ~                           ~
|----------------------------------------------------------------------------|
|------------------------------------------------------------------------14--|
|--p13--13-h14-----------------------------------------11~--11~--11--11---/--|
|---------------14-----p11--14/16--14--11\9-----------------------/---/---/--|
|-------------------------------------------12-----12-------------/---/---/--|
|-----------------------------------------------------------------/---/------|


|-------------12-/14-/16--17--17b19--17--16--16b17-16------------------------|
|-14--12--12---/---/---/---/---------------------------17--------------------|
|--/---/---/---/---/---/---/-------------------------------14--13--13b14r13--|
|--/---/---/---/---/---/---/-------------------------------------------------|
|--/---/---/-----------------------------------------------------------------|
|----------------------------------------------------------------------------|

           ~                             ~
|----------------------------------------------------------------------------|
|----------------------------------------------------------------------------|
|-11-----------14--13--13b14r13--11--9--9---16--14h16p14--14-p13--13-h14-----|
|-----9-/11---------------------------------------------------------------14-|
|----------------------------------------------------------------------------|
|----------------------------------------------------------------------------|


|----------------------------------|
|----------------------------------|
|----------------------------------|
|-11--14--11--14/16--14--11/9------|
|------------------------------12~-|
|----------------------------------|
Suggest correction
comments
print report bad tab
guest
You may want to rate the tab now too:
select rating
Please do not post tabs as comments. Select "correction" instead!