Oops, an error
Loading. Please wait.

Big Sur Moon Tab

version 1
version 1
115,539 views 60 this week
25 commentsread comments
1 2 3 4 5
x 29
add to favorites
launch autoscroll
font size
0
reset
how to read this tab
guitar tuner
Autoscroll
slow
fast
+/-
esc
set tempo
stop
Help us to improve Ultimate-Guitar.com Take our survey!
×
Difficulty
intermediate
BIG SUR MOON
                            As recorded by Buckethead
                           (From the 1998 Album COLMA)

Music by Buckethead
Transcribed by Shinobi
Contact Shinobi@shinopix.com

Gtr I (E A D G B E) - 'Buckethead'
(Delay effect)

[Intro Theme]
   Q=150
   N.C.
  4/4
   Gtr I
e|-----------------|-----------------|-----------------|-----------------|
B|-----------------|-----------------|-----------------|-----------------|
G|-----------------|-----------------|-----------------|-----------------|
D|-----------------|-----------------|-----------------|-----------------|
A|---9-7-9-5-9-4-9-|---9-7-9-5-9-4-9-|---5-4-5-2-5-0-5-|---5-4-5-2-5-0-5-|
E|-7---------------|-7---------------|-3---------------|-3---------------|


e|-----------------|-----------------|-----------------|------------------||
B|-----------------|-----------------|-----------------|------------------||
G|-----------------|-----------------|-----------------|------------------||
D|-----------------|-----------------|-----------------|------------------||
A|---9-7-9-5-9-4-9-|---9-7-9-5-9-4-9-|---5-4-5-2-5-0-5-|---5-4-5-0-2-5-4--||
E|-6---------------|-7---------------|-3---------------|-3----------------||

[Main Theme]
   Bm/F#                     A/E       Bm/F#             G/D
e|-----------------|-----------------|-----------------|------------------|
B|-----------------|-----------------|-----------------|------------------|
G|-----7-------7---|-----7-------6---|-----7-------7---|-----4-------6----|
D|---9---9---9---9-|---9---9---7---7-|---9---9---9---9-|---5---5---7---7--|
A|-9-------9-------|-9-------7-------|-9-------9-------|-5-------7--------|
E|-----------------|-----------------|-----------------|------------------|


   Bm/F#                     A/E       G/D
e|-----------------|-----------------|-----------------|------------------||
B|-----------------|-----------------|-----------------|------------------||
G|-----7-------7---|-----7-------6---|-----4-------4---|-----4-------4----||
D|---9---9---9---9-|---9---9---7---7-|---5---5---5---5-|---5---5---5---5--||
A|-9-------9-------|-9-------7-------|-5-------5-------|-5-------5--------||
E|-----------------|-----------------|-----------------|------------------||

[Arpeggios]
   N.C.(Bm)
e|--------------------|-7-10-9-10-7-------|
B|------------------7-|-------------7-----|
G|----------------7---|---------------7---|
D|--------9----11-----|-----------------9-|
A|------9---12--------|-------------------|
E|-7-10---------------|-------------------|


e|--------------------|-------------7-10-9--|
B|--------------------|-----------7---------|
G|--------------------|---------7-----------|
D|--------------------|-9----11-------------|
A|------------------9-|---12----------------|
E|-9-10-9-10-9-7-10---|---------------------|


e|-10-7--------------|---------------------|
B|------7------------|---------------------|
G|--------7----------|---------------------|
D|----------9--------|-------------9----11-|
A|-------------------|-----------9---12----|
E|------------9-10-9-|-10-9-7-10-----------|


e|----------------14-------|----14--------14-12-10--|
B|-------12-14-15----15-14-|-15----15-14------------|
G|----11-------------------|------------------------|
D|-12----------------------|------------------------|
A|-------------------------|------------------------|
E|-------------------------|------------------------|


e|------------------------|-------------------|
B|-14-10------------------|-------------------|
G|-------12-11------------|-------------------|
D|-------------12-11-9----|-----------------9-|
A|---------------------10-|-9-------------9---|
E|------------------------|---10-9-7-9-10-----|


e|--------7-9-10-9----|------------------|
B|------7----------10-|------------------|
G|----7---------------|-9-7-6---8-6-7-9--|
D|-11-----------------|-------7----------|
A|--------------------|------------------|
E|--------------------|------------------|


e|----------------|-----------------|-------------------|----------------------|
B|----------------|-----------------|-------------------|-------12-10-8--------|
G|-7-6----------7-|-6---------------|-------------------|----11---------9-9-9--|
D|-----7---7-7----|---7-------------|--------------9-11-|-12-------------------|
A|-------7--------|-----7-5-4-0-5-7-|------------9------|----------------------|
E|----------------|-----------------|-5-3-7-9-10--------|----------------------|


[Main Theme/Outro]
                        Bm/F#                       A/E       Bm/F#
e|----------------------|-----------------|-----------------|------------------|
B|-8--------------------|-----------------|-----------------|------------------|
G|----------------------|-----7-------7---|-----7-------6---|-----7-------7----|
D|---12-11-12-11-9----9-|---9---9---9---9-|---9---9---7---7-|---9---9---9---9--|
A|-----------------12---|-9-------9-------|-9-------7-------|-9-------9--------|
E|----------------------|-----------------|-----------------|------------------|

   H.=H
           A/E
                                       ~
e|-----------------|-----------------|------|
B|-----------------|-----------------|------|
G|-----7-------6---|-----------------|------|
D|---9---9---7---7-|---7-9-7-9-7-9-7-|-9----|
A|-9-------7-------|-7---------------|------|
E|-----------------|-----------------|------|


   Bmadd9
e|---------------|-7--------|------------7-------------------*|
B|----------7----|----------|----------7---7-----------------*|
G|--------7------|----------|--------7-------7---------------*|
D|-----11--------|----------|-----11-----------11------------*|
A|---9-----------|----------|---9-----------------9----------*|
E|-7-------------|----------|-7---------------------7--(7)---*|
Suggest correction
comments
print report bad tab
25 comments total. Showing first comments. show 1 bad comment
0 reply
WhaTever4 188 Sep 14, 2007 06:51 PM

Im going to sent ultimate guitar the real way he plays it at least what i can hear and see and it is pretty hard but he uses a sick delay!!!

+1 reply
muse-ik 41 Sep 18, 2007 07:14 PM

anyone know the settings for the delay that he uses in the song? like... feedback/type/miliseconds time? thanks in advance.

guest
You may want to rate the tab now too:
select rating
Wanna post a correction for this tab? Suggest correction