Oops, an error
Loading. Please wait.

Bloodless Tab

version 2
version 2

Whole song

Interactive

1,431 views 1 this week
no commentswrite comment
1 2 3 4 5
2 more votes to show rating
add to favorites
launch autoscroll
font size
0
reset
how to read this tab
guitar tuner
Autoscroll
slow
fast
+/-
esc
set tempo
stop
Help us to improve Ultimate-Guitar.com Take our survey!
×
Difficulty
intermediate
e:---------------------------------------------:
B:---------------------------------------------:     x4
G:---------------------------------------------:
D:---------------------------------------------:
A:------4---------2-4---------5---------7-5----:
E:2-2-2---2-2-2-2------2-2-2----2-2-2-2--------:

e:---------------------------------------------:
B:---------------------------------------------:
G:---------------------------------------------:
D:-----2/12-12-12-12-------2/12----------------:
A:-----2/12-12-12-12-------2/12----------------:      x2
E:-0h2-2/12-12-12-12---0h2-2/12----------------:

sorry im skippin alot
3:07

e:----------------------------------------------:
B:7p5--5h7--9p7--7h9--14h17--17p14--14p12-12p10-:    x4
G:---0----0-----0---0------0------0------0-----0:
D:----------------------------------------------:
A:----------------------------------------------:
E:----------------------------------------------:


fast pick each to the rythem of the song
e:----------------------------------------------:
B:7-9-10/12/14/17/19\15\14\12\10/12/14\10-12-10-:
G:----------------------------------------------:
D:----------------------------------------------:
A:----------------------------------------------:
E:----------------------------------------------:

e:----------------------------------------------:
B:12-10-9---------------------------------------:
G:-------9/11/13-14-9-11------------------------:
D:----------------------------------------------:
A:----------------------------------------------:
E:----------------------------------------------:


sorry that all I have for now i know its pretty accuate though 

thanks


enjoy
Suggest correction
Give kudos to tab author, rate the tab!
1 2 3 4 5
comments
print report bad tab
guest
You may want to rate the tab now too:
select rating
Wanna post a correction for this tab? Suggest correction