Oops, an error
Loading. Please wait.

Bloodless Tab

version 3
version 3

Whole song

Interactive

5,049 views 3 this week
2 commentsread comments
1 2 3 4 5
excellent!
x 3
add to favorites
launch autoscroll
font size
0
reset
how to read this tab
guitar tuner
Tab Pro tools
  • play this tab
  • loop segment
  • change instrument
  • show fretboard
  • metronome
Autoscroll
slow
fast
+/-
esc
set tempo
stop
Contributor
Artist : Buckethead
Song   : Bloodless
Album  : Decoding the Tomb of Bansheebot
Tuning : Eb Ab Db Gb Bb Eb

|--------------------------|------------------------|
|--------------------------|------------------------|
|*-------------------------|------------------------|
|*-------------------------|------------------------|
|---------------5----------|--------------3----5----|
|---3--3-----3-------3--3--|-----3-----3------------|

|-------------------------|-------------------------||
|-------------------------|-------------------------||
|-------------------------|------------------------*||
|-------------------------|--------------3---------*||
|--------------6----------|-------------------6-----||
|--3--3-----3-------3--3--|-----3-----3-------------||

|-------------------------------|----------------------|
|-------------------------------|----------------------|
|-*-----------------------------|----------------------|
|-*-----------------------------|----------------------|
|---------------------------17--|------17------17------|
|----0h--3----3s--15----15--15--|------15------15------|

|----------------------------|-------------------||------------------------|
|----------------------------|-------------------||------------------------|
|----------------------------|------------------*||*-----------------------|
|----------------------------|------------------*||*--5--------------------|
|-------------------------17-|-------------------||------------------------|
|--0h--3----3s--15----15--15-|-------------------||------3-----3--6--5---3-|

|-----------------------|--------------------------|-----------------------|
|-----------------------|--------------------------|-----------------------|
|-----------------------|--------------------------|-----------------------|
|--5--------------------|--5-----------------------|--5--------------------|
|-----------------------|--------------------------|-----------------------|
|--------3--------------|-----3-----3--6--5-----3--|--------3--------------|

|-------------------------|-----------------------|-------------------------|
|-------------------------|-----------------------|-------------------------|
|-------------------------|-----------------------|-------------------------|
|--5----------------------|--5--------------------|--5----------------------|
|-------------------------|-----------------------|-------------------------|
|-----3-----3--6--5----3--|--------3--------------|-----3-----3--6--5-------|

|----------------------||---15------15------13------15-----|
|----------8-----------||----------------------------------|
|----------7----------*||*------12------10------12------5--|
|----------5----------*||*---------------------------------|
|----------------------||----------------------------------|
|----------------------||----------------------------------|

|--8-----8-----8-----8------|--15------15------13------15-----|
|---------------------------|---------------------------------|
|-----5-----5-----5-----12--|------12------10------12------3--|
|---------------------------|---------------------------------|
|---------------------------|---------------------------------|
|---------------------------|---------------------------------|

|--6-----8-----11-----10-------||-------------------------|
|------------------------------||-------------------------|
|-----5-----8------7------12--*||*----------------3-------|
|-----------------------------*||*----------3--5-----5----|
|------------------------------||---3--5------------------|
|------------------------------||-------------------------|

|----------------------|------------------------|----------------------||
|----------------------|------------------------|----------------------||
|----------------------|----------------2-------|---------------------*||
|------3---------------|-------------3-----3----|---------------------*||
|---------5--3---------|----------5-------------|------5--3--5---------||
|---------------6------|--5--6------------------|----------------------||

|---------------------------|------------------------|----------------------|
|---------------------------|------------------------|----------------------|
|-*-------------------------|------------------------|----------------------|
|-*-------------------------|------------------------|----------------------|
|---------------5-----------|--------------3----5----|--------------6-------|
|---3--3-----3-------3--3---|-----3-----3------------|--3--3-----3-----3--3-|

|-------------------------||------------------------------|
|-------------------------||------------------------------|
|------------------------*||*-----------------------------|
|--------------3---------*||*-----------------------------|
|-------------------6-----||--------------------------17--|
|-----3-----3-------------||---0h--3----3s--15----15--15--|

|----------------------|-----------------------------------||
|----------------------|-----------------------------------||
|----------------------|----------------------------------*||
|----------------------|----------------------------------*||
|------17------17------|-------------------------17--------||
|------15------15------|--0h--3----3s--15----15--15--------||

|------------------------------------|--------------------------|
|----------------10------10----------|-----------5--6--5--------|
|-*----------12------12------12------|--------7-----------7-----|
|-*------12----------------------12--|-----7-----------------7--|
|----10------------------------------|--5-----------------------|
|------------------------------------|--------------------------|

|-------------------------------|--------------------------------||
|-------------8------8----------|-------------8------8-----------||
|---------10-----10-----10------|---------10-----10-----10------*||
|-----10--------------------10--|-----10--------------------10--*||
|--8----------------------------|--8-----------------------------||
|-------------------------------|--------------------------------||

Not too sure about this
|-------------------------------------------------------------|
|-------------------------------------------------------------|
|-*--7------------------------------------5-----7-----x--3----|
|-*--7------------------------------------7-----7-----x--5----|
|------------------------------------------------------------|
|-------------------------------------------------------------|

|--------------------------|-------------------------|---------------------||
|--------------------------|-------------------------|---------------------||
|--10----10----7--5-----7--|-----x--3----10----10----|--10----10----10----*||
|---7-----7----7--7-----7--|-----x--5-----7-----7----|---7-----7-----7----*||
|--------------------------|-------------------------|---------------------||
|--------------------------|-------------------------|---------------------||

|----------------------------|--------------------------|
|----------------------------|--------------------------|
|-*--9--7--9-----4--5--7--9--|--7--5--4--5--9--7--9-----|
|-*--7--7--7-----5--5--5--5--|--5--5--5--5--7--7--7-----|
|----------------------------|--------------------------|
|----------------------------|--------------------------|

|---------------------------||-----------------------------|
|---------------------------||-----------------------------|
|--4--5--7--9--7--5--4--5--*||*--9--7--9-----10--9--10-----|
|--5--5--5--5--5--5--5--5--*||*--7--7--7------7--7---7-----|
|---------------------------||-----------------------------|
|---------------------------||-----------------------------|
                                
                                From here on I think it's right
|------------------------------||---3p--1-----1h--3-----6p--5--|
|------------------------------||------------------------------|
|--12--10--9--10--9-----7-----*||*---------0---------0---------|
|---7---7--7---7--7-----7-----*||*-----------------------------|
|------------------------------||------------------------------|
|------------------------------||------------------------------|

|-----5h--6-----10h--13-----13h--|--10-----8p--6-----6p--5------||
|--------------------------------|------------------------------||
|--0---------0-----------0-------|------0---------0---------0--*||
|--------------------------------|-----------------------------*||
|--------------------------------|------------------------------||
|--------------------------------|------------------------------||

|--------------------------|------------------|-------------------------|
|--------------------------|------------------|-------------------------|
|-*------------------------|------------------|-------------------------|
|-*--5--5--5--3--5----8----|------------------|--7--7--7--5--7----10----|
|----3--3--3--1--3----6----|------------------|--5--5--5--3--5-----8----|
|--------------------------|------------------|-------------------------|

|-------------------||-------------------------------|
|-------------------||-------------------------------|
|------------------*||-------------------------------|
|------------------*||--5--------------5----------5--|
|-------------------||-------------------------------|
|-------------------||-----3-3-3-3-3-3----3-3-3-3----|

|-------------------------------|-------------------------------|
|-------------------------------|-------------------------------|
|-------------------------------|-------------------------------|
|----------5------6------6------|--5--------------5----------5--|
|-------------------------------|-------------------------------|
|--3-3-3-3----3-3----3-3----3-3-|-----3-3-3-3-3-3----3-3-3-3----|

-------------------------------||
-------------------------------||
-------------------------------||
----------5--------------------||
-----------------6------5------||
--3-3-3-3----3-3----3-3----3-3-||
comments
We did not receive enough feedback on this tab! Please rate:
print report bad tab
1 2 3 4 5
2 comments total.
+1 reply
Mr. B. wrote on July 25 2008, 05:24 pm

First comment Whoo!

Nice tab. More complete than the others.

0 reply
frantic_saint wrote on April 22 2009, 12:19 pm

love it man! s'good.

I want to post or [tab]
guest
You may want to rate the tab now too:
select rating
Please do not post tabs as comments. Select "correction" instead!