Oops, an error
Loading. Please wait.

Cruel Reality Of Nature tab

version 2
version 2

Whole song

Interactive

1,800 views 1 this week
2 commentsread comments
1 2 3 4 5
2 more votes to show rating
add to favorites
×
Save as Personal and add changes to this tab that will be seen only by you. Learn more ›
×
You can save this tab as Personal to edit and correct it or add notes. All changes will be seen only by you. Learn more »
launch autoscroll
font size
0
reset
how to read this tab
guitar tuner
backing track
0:00
0:00
edit
Autoscroll
slow
fast
+/-
esc
set tempo
stop
Author
Difficulty
Buckethead - Cruel Reality of Nature                             
From the album Population Override


The song was a jam with keyboardist Travis Dickerson, who mostly plays around the 
chords Am | G | D | Em.


     W                    E   Q.     H           E   Q.     Q.      E   
E||-------------------|-----------------------|-----12------L------10--|
B||-------------------|------12------L--------|-----13------L------12--|
G||-------------------|--10-------------------|------------------------|
D||-------------------|-----------------------|------------------------|
A||-------------------|-----------------------|------------------------|
E||-------------------|-----------------------|------------------------|


   Q     Q    H           E  E   E  E  E  Q    S  S     H        Q    E  E   
--10----12----L--------|------------8--L-------------|----------------------|
-----------------------|-----6s--8--------6----5h-6p-|--5-------------5--6--|
-----------------------|-----------------------------|----------------------|
-----------------------|-----------------------------|----------------------|
-----------------------|-----------------------------|----------------------|
-----------------------|-----------------------------|----------------------|


  Q.      E  E  Q     E     H        Q.      E        Q     E   E  Q.      E      
-------------------------|-------------------------|-----------------------------|
--8s------6--L--5h----6--|------------------15pbr--|--L----13--13--L------15pbr--|
-------------------------|--5--------L-------------|-----------------------------|
-------------------------|-------------------------|-----------------------------|
-------------------------|-------------------------|-----------------------------|
-------------------------|-------------------------|-----------------------------|


  Q     H.               H        Q.      S   S      Q     Q     Q    Q     
-------15------------|--17--------L------19h-20p-|--19---------------------|
--L------------------|---------------------------|--------20----17---------|
---------------------|---------------------------|-------------------------|
---------------------|---------------------------|-------------------------|
---------------------|---------------------------|-------------------------|
---------------------|---------------------------|-------------------------|


      H        Q     E.      S     H        Q     E    S   S   
-------------------------------|------------------------------|
--15g17--------L----15pbr---13-|--15-------------15b--15p-13p-|
-------------------------------|------------------------------|
-------------------------------|------------------------------|
-------------------------------|------------------------------|
-------------------------------|------------------------------|


   Q       E    E  Q.      S   S     W                    W                 
---------------15--L------13p-12-|--12~----------------|-------------------|
--12h----(13)--------------------|---------------------|-------------------|
---------------------------------|---------------------|-------------------|
---------------------------------|---------------------|-------------------|
---------------------------------|---------------------|-------------------|
---------------------------------|---------------------|-------------------|


  H        Q.      E      Q     E   E  E   Q    E     S   S Q.      S  S  E  E   E   
------------------12--|--12----10--10--L---8----7--|--7S--8-L------10p-8------------|
------------------13--|--13----12--12--L--10----8--|--8S-10-L------------10--L------|
----------------------|----------------------------|----------------------------10--|
----------------------|----------------------------|--------------------------------|
----------------------|----------------------------|--------------------------------|
----------------------|----------------------------|--------------------------------|


  S   S  Q.     Q     S   S   E     H         H         
---------------------------------|---------------------|
---------------------------------|---------------------|
--9h-10p-9------L----10s-12S-10--|--L------------------|
---------------------------------|-----------10--------|
---------------------------------|---------------------|
---------------------------------|---------------------|


  E   E     Q    Q.       E        Q     T   T   E.  H         
-------------------------15pbr--|--L----13h-15p-13---L--------|
-----15pbr--L----L~-------------|-----------------------------|
--------------------------------|-----------------------------|
--------------------------------|-----------------------------|
--------------------------------|-----------------------------|
--------------------------------|-----------------------------|


  Q.     E  E  Q.        Q.     E  E  Q.        Q.     E  E  Q.      
---------------3------|--L------------3------|--L------------3------|
------------1---------|------------1---------|------------1---------|
---------4------------|---------4------------|---------4------------|
----------------------|----------------------|----------------------|
----------------------|----------------------|----------------------|
----------------------|----------------------|----------------------|


  W                   W                   H        E   E   E   E   
--L----------------|-------------------|--------------12------10--|
-------------------|-------------------|------------------13------|
-------------------|-------------------|--------------------------|
-------------------|-------------------|--------------------------|
-------------------|-------------------|--------------------------|
-------------------|-------------------|--------------------------|


  H        E   E   E   E     Q     Q    E    Q.        Q    Q    H         
--L--------L--12------10--|--L-----8----7S---8------|--5----7----8--------|
------------------13------|-------10----8S--10------|--5------------------|
--------------------------|-------------------------|---------------------|
--------------------------|-------------------------|---------------------|
--------------------------|-------------------------|---------------------|
--------------------------|-------------------------|---------------------|


  Q    E  E    Q    E   E       Q    Q    Q.     S  S     H        Q.      E   
----------7--7g8----7------|---------------------------|----------------------|
-----------------------10--|--/12----8----L------------|----------------------|
---------------------------|---------------------9p-7h-|--9--------L----------|
---------------------------|---------------------------|------------------14--|
---------------------------|---------------------------|----------------------|
---------------------------|---------------------------|----------------------|


   E    E   E   E  Q.      E      E    E   E   E  Q.      E   
---------------12--L----------|---------------12--L----------|
--12h--13---------------------|--12h--13---------------------|
-----------14-----------------|-----------14-----------------|
--------------------------14--|--------------------------14--|
------------------------------|------------------------------|
------------------------------|------------------------------|


   |---3--|                                                                        
   Q      H        Q.      E      Q     E   E  H            Q     Q     Q    Q     
--------------------------13--|--13----12--12--L--------|--12----10-----8----7----|
--12h----13--------L------15--|--15----13--13--L--------|--13----12----10----8----|
------------------------------|-------------------------|-------------------------|
------------------------------|-------------------------|-------------------------|
------------------------------|-------------------------|-------------------------|
------------------------------|-------------------------|-------------------------|


  W                    Q     Q     Q    Q       W                 
--L----------------|--12----10-----8----7----|-------------------|
--L----------------|--13----12----10----8----|-------------------|
-------------------|-------------------------|--9----------------|
-------------------|-------------------------|-------------------|
-------------------|-------------------------|-------------------|
-------------------|-------------------------|-------------------|


   E   E   E   E  H            E   E   E   E  H         
--------------15--L--------|--------------15--L--------|
----------13---------------|----------13---------------|
------16-------------------|------16-------------------|
--14-----------------------|--14-----------------------|
---------------------------|---------------------------|
---------------------------|---------------------------|


   Q     E    E  E   Q     E     H        E   Q       S  S  
--17----15h--17--L------------|----------------------------|
--------------------15----15--|--L--------L--15pbr----L-13-|
------------------------------|----------------------------|
------------------------------|----------------------------|
------------------------------|----------------------------|
------------------------------|----------------------------|


   Q      E   E  H           H         Q       E   E      Q.      E   Q.      E   
--------------------------|---------------------------|--------------15------13--|
--12h----13---------------|-----------15pbr----L--13--|--12------13--------------|
-------------14--L--------|--L------------------------|--------------------------|
--------------------------|---------------------------|--------------------------|
--------------------------|---------------------------|--------------------------|
--------------------------|---------------------------|--------------------------|


   H        E   E   E   E      Q     E   E  E   Q    E     E   E   Q    Q.      E   
--12--------L----------12--|--12----10--10--L---8----7--|--L---8---8----L------12--|
---------------15--13------|--13----12--12--L--10----8--|--L--10--10----L------13--|
---------------------------|----------------------------|--------------------------|
---------------------------|----------------------------|--------------------------|
---------------------------|----------------------------|--------------------------|
---------------------------|----------------------------|--------------------------|


   Q     E   E  E   E   E   E     E   Q     E  Q.      E   
--12----10--10--L--15--15--15--|--L--13----12--L------12--|
--13----12--12--L--17--17--17--|--L--15----13--L------13--|
-------------------------------|--------------------------|
-------------------------------|--------------------------|
-------------------------------|--------------------------|
-------------------------------|--------------------------|


   Q     E   E  E   Q    E     E   E   Q    Q.      E      Q     E   E  Q.      E   
--12----10--10--L---8----7--|--L---8---8----L------15--|--15----13--13--L------17--|
--13----12--12--L--10----8--|--L--10--10----L------17--|--17----15--15--L------18--|
----------------------------|--------------------------|---------------------------|
----------------------------|--------------------------|---------------------------|
----------------------------|--------------------------|---------------------------|
----------------------------|--------------------------|---------------------------|


   Q     E   E  H           E  E  E   E  Q    S   S E      W                 
--17----15--15--L--------|---------------7----8h-10-Lb--|--L----------------|
--18----17--17--L--------|--------8--10-----------------|-------------------|
-------------------------|-----9------------------------|-------------------|
-------------------------|------------------------------|-------------------|
-------------------------|------------------------------|-------------------|
-------------------------|------------------------------|-------------------|


  Q.      E  Q.      S   S     W                   E  E  E  E  H         
---------15--L------13p-12-|--12----------------|--------------0--------|
---------------------------|--------------------|-----------1-----------|
---------------------------|--------------------|--------2--------------|
---------------------------|--------------------|-----2-----------------|
---------------------------|--------------------|--0--------------------|
---------------------------|--------------------|-----------------------|


  W                   W                   W                   E  E  E  E  H         
--L----------------|-------------------|-------------------|--------------7--------|
-------------------|-------------------|-------------------|-----------0-----------|
-------------------|-------------------|-------------------|--------5--------------|
-------------------|-------------------|-------------------|-----7-----------------|
-------------------|-------------------|-------------------|--0--------------------|
-------------------|-------------------|-------------------|-----------------------|


  W                   W                   W                   E  E  E  E  H         
--L----------------|--L----------------|--L----------------|--------------3--------|
-------------------|-------------------|-------------------|-----------1-----------|
-------------------|-------------------|-------------------|--------4--------------|
-------------------|-------------------|-------------------|-----2-----------------|
-------------------|-------------------|-------------------|--0--------------------|
-------------------|-------------------|-------------------|-----------------------|


  W                   E  E  E  E  H           W                 
--L----------------|--------------3--------|--L----------------|
-------------------|-----------1-----------|-------------------|
-------------------|--------4--------------|-------------------|
-------------------|-----2-----------------|-------------------|
-------------------|--0--------------------|-------------------|
-------------------|-----------------------|-------------------|


  E  E  E   E  H           E  E  E   E   H         
------------------------|--7--7--7h--8------------|
--5--5--5h--6-----------|---------------10--------|
---------------5--------|-------------------------|
------------------------|-------------------------|
------------------------|-------------------------|
------------------------|-------------------------|


                   3     3     3   3                              
   E   E   E   E   Q     Q     S   E.      Q    E   E   H         
--13--13--13--13--13----13----13h-15---|--12----L--13------------|
---------------------------------------|---------------13--------|
---------------------------------------|-------------------------|
---------------------------------------|-------------------------|
---------------------------------------|-------------------------|
---------------------------------------|-------------------------|


  E  E  E   E  H           E  E  E   E   Q.      E   
------------------------|--7--7--7h--8----------13--|
--6--6--6p--5--5--------|---------------10----------|
------------------------|---------------------------|
------------------------|---------------------------|
------------------------|---------------------------|
------------------------|---------------------------|


   Q      E   E   E.   E.   S   S     Q.        E  H           W                 
--13p----12--12--12---10---10h-12-|--12br-------------------|-------------------|
-------------13--13---12----------|------------10--L--------|-------------------|
----------------------------------|-------------------------|-------------------|
----------------------------------|-------------------------|-------------------|
----------------------------------|-------------------------|-------------------|
----------------------------------|-------------------------|-------------------|


  E   Q.        H             E   E    E   E      Q     Q         W                 
--------------------------|--15-------------------------------|--------------------|
-----15pbr------Lb--------|------15b--15--13--13g15----13s----|--12----------------|
--------------------------|-----------------------------------|--------------------|
--------------------------|-----------------------------------|--------------------|
--------------------------|-----------------------------------|--------------------|
--------------------------|-----------------------------------|--------------------|


   E    E   E   E  H            E    E   Q     Q.        E   
----------------------------|-----------------19br------15--|
-----------13---------------|-----------13------------------|
--12s--14------14--L--------|--12s--14----------------------|
----------------------------|-------------------------------|
----------------------------|-------------------------------|
----------------------------|-------------------------------|


                                                  ^                 
   E   Q     E  H            W                    W                 
--15---------------------|--15----------------|--15----------------|
------17----15--L--------|--13----------------|--13----------------|
-------------------------|--16----------------|--16----------------|
-------------------------|--------------------|--14----------------|
-------------------------|--------------------|--------------------|
-------------------------|--------------------|--------------------|


  W                   W                   E  S S S S E  H         
--L----------------|-------------------|-------------3--L--------|
--L----------------|-------------------|-----------1----L--------|
--L----------------|-------------------|---------4------L--------|
--L----------------|-------------------|-------2--------L--------|
-------------------|-------------------|-----0----------L--------|
-------------------|-------------------|-------------------------|


  W                   W                   W                  
--L----------------|-------------------|-------------------||
--L----------------|-------------------|-------------------||
--L----------------|-------------------|-------------------||
--L----------------|-------------------|-------------------||
--L----------------|-------------------|-------------------||
-------------------|-------------------|-------------------||




Duration Legend
---------------
W - whole
H - half
Q - quarter
E - 8th
S - 16th
T - 32nd
X - 64th
. - note dotted
|-n-|  - n-tuplets


Tablature Legend
----------------
L - tied note
x - dead note
g - grace note
(n) - ghost note
> - accentuded note
NH - natural harmonic
AH - artificial harmonic
TH - tapped harmonic
SH - semi harmonic
PH - pitch harmonic
h - hammer on
p - pull off
b - bend
br - bendRelease
pb - preBend
pbr - preBendRelease
brb - bendReleaseBend
\n/ - tremolo bar dip
\n - tremolo bar dive
-/n - tremolo bar Release up
/n\ - tremolo bar inverted dip
/n - tremolo bar return
-\n - tremolo bar Release down
S - shift slide
s - legato slide
/ -  slide into from below or out of upwards
\ -  slide into from above or out of downwards
~ - vibrato
W - wide vibrato
tr - trill
TP - tremolo picking
T - tapping
S - slap
P - pop
< - fade in
^ - brush up
v - brush down
a

            
            
Suggest correction
Creating personal tab
Creating personal tab
You can edit any tab online and save it as your Personal.

You can edit, replace or remove any tab part or add personal notes – all changes will be seen only by you.

Personal tabs can be accessed anytime from any device, even offline.
Learn more »
Give kudos to tab author, rate the tab!
1 2 3 4 5
comments
print report bad tab
2 comments total.
0 reply
Bleeding_Metal1 10 Jan 15, 2011 05:57 PM

Whats a Tied note? the thing thats stands for the L symbol what is it?

0 reply
Bleeding_Metal1 10 Jan 15, 2011 06:02 PM

I think i know what it stands for now, by the way this an amazing tab!

guest
You may want to rate the tab now too:
select rating
Wanna post a correction for this tab? Suggest correction