Oops, an error
Loading. Please wait.

Earth Heals Herself tab

version 1
version 1

Whole song

Interactive

9,490 views 6 this week
6 commentsread comments
1 2 3 4 5
x 8
add to favorites
×
Save as Personal and add changes to this tab that will be seen only by you. Learn more ›
×
You can save this tab as Personal to edit and correct it or add notes. All changes will be seen only by you. Learn more »
launch autoscroll
font size
0
reset
how to read this tab
guitar tuner
edit
Autoscroll
slow
fast
+/-
esc
set tempo
stop
Buckethead - Earth Heals Herself
Full Tab
Tabbed by James Sicardi


0:13
|----------------------------|---------------------------|-----------------|
|------------11-9-8--8-9-----|---------------------------|----------11-9-8-|
|-8/10--12--------------8----|8/10--12--10-8-7--7h8p7--7-|-8/10--12--------|
|----------------------------|---------------------------|-----------------|
|----------------------------|---------------------------|-----------------|
|----------------------------|---------------------------|-----------------|

0:34
|--------------------------------------------------------|------------|
|-8-9----------------------------------------------------|------------|
|-----8--8h10-8-7-7h8p7------7-8-10-12-13-15-13-12-------|-----9-12~--|
|-----------------------9--------------------------12b13-|--10--------|
|--------------------------------------------------------|10----------|
|--------------------------------------------------------|------------|

0:45
|-----------------------||--------------------|---------------------|
|-----------------------||--15-15-15-16~---13-|--15h16--15-13-15----|
|--------9h11--9~--12~--||--------------------|------------------12-|
|-----10----------------||--------------------|---------------------|
|--10-------------------||--------------------|---------------------|
|-----------------------||--------------------|---------------------|

0:57
|--14h15--14-14h15---20-18--17p15--14h15--14---15------|
|------------------------------------------------15~---|
|------------------------------------------------------|
|------------------------------------------------------|
|------------------------------------------------------|
|------------------------------------------------------|

1:04
|-----------------------------|----------------|--10h11--------14h15--|
|---------9-------------------|---9h11---------|---------8h10---------|
|--15/17-----11-9----11-9----9|--------10h12---|----------------------|
|-----------------11------11--|----------------|----------------------|
|-----------------------------|----------------|----------------------|
|-----------------------------|----------------|----------------------|

1:10
|-12-11h12-----15-|--18-18-18-16-15-15~-|------------------------------------|
|-----------11----|---------------------|-16/18--16-15-15-15-16b17--15h16----|
|-----------------|---------------------|------------------------------------|
|-----------------|---------------------|----------------------------------17|
|-----------------|---------------------|------------------------------------|
|-----------------|---------------------|------------------------------------|

1:20
|----------------------------------------------------------|--------15-------|
|----------------------------------------------------------|-13/14-----16p15-|
|--15h17--15\13--13p12-----17-----------------------15-15~-|-----------------|
|-----------------------15-----17h18--17h18--15h17---------|-----------------|
|----------------------------------------------------------|-----------------|
|----------------------------------------------------------|-----------------|

1:24
|------------------------------------------------------------------------|
|--13-15-13p12-----------------------------------------------------------|
|---------------15--15-13-12-10--12p10--9h10--8--------------------------|
|-----------------------------------------------11-8h10------------------|
|------------------------------------------------------------------6/10--|
|---------------------------------------------------------8~--6/8--------|

1:30
|-------------------------------|-----------------------------------|
|-----------------------------8-|--------12h13p12--13~-12h13p12--15-|
|--------12-10-9-10-9~--9h10----|--10-12----------------------------|
|--10-13------------------------|-----------------------------------|
|-------------------------------|-----------------------------------|
|-------------------------------|-----------------------------------|

1:36
|-------------------|----------------------------|--14b15---14p12p11-13-11-14-|
|--12h13--12--------|----------------------6-9-8-|----------------------------|
|------------12b13--|--10-12-10-9-8--8-9-7-------|----------------------------|
|-------------------|----------------------------|----------------------------|
|-------------------|----------------------------|----------------------------|
|-------------------|----------------------------|----------------------------|

1:48
|--18-14-11h12--13b14--|--14-13-12\11--|-11-18-16-15-16p11--16p11~b12~-----|
|----------------------|---------------|-----------------------------------|
|----------------------|---------------|-----------------------------------|
|----------------------|---------------|-----------------------------------|
|----------------------|---------------|-----------------------------------|
|----------------------|---------------|-----------------------------------|

1:57
|--------------------------|---------------------------------|---------------|  |
|--13p11--10h11------------|---------10h11p10p8--------------|-10h11p10p8----|  |
|----------------10-8----8-|--8-6---------------11p10p8-10-8-|------------10-|x2|
|---------------------10---|---------------------------------|---------------|  |
|--------------------------|---------------------------------|---------------|  |
|--------------------------|---------------------------------|---------------|  |

2:06
|-10h11p10p8----------------------|-12h13p12--12-10----12-10-13-11~---12-10-----|
|------------10h11p10p8-10--7h8h10|----------------------------------------13-10|
|---------------------------------|---------------------------------------------|
|---------------------------------|---------------------------------------------|
|---------------------------------|---------------------------------------------|
|---------------------------------|---------------------------------------------|

2:15
|---12s11-11-12-13-14-13-|-12-12h14-12---12-19--19-17-16-----------|
|-8-9s-8--8--9--10-11-10-|-9-----------------------------18-16-15~-|
|------------------------|-----------------------------------------|
|------------------------|-----------------------------------------|
|------------------------|-----------------------------------------|
|------------------------|-----------------------------------------|

2:27
|-----------------------------------------------|--13b14--11h13p11-13p11--|
|--13~-----------------------------------12h13--|-------------------------|
|-------10h12--10-8-10-8-10--12~--12h14---------|-------------------------|
|-----------------------------------------------|-------------------------|
|-----------------------------------------------|-------------------------|
|-----------------------------------------------|-------------------------|

2:36
|--10h11p10-------------|--------------------------------------|
|-----------7\5p4h5-----|-----------------------------------16-|
|-------------------7---|--7-7-8--7-7-8--7-7-8--12-10-8--------|
|-----------------------|--4-4-5--4-4-5--4-4-5--9--7--5--------|
|-----------------------|--------------------------------------|
|-----------------------|--------------------------------------|

2:55
|-----15----------------18-13~--------------13---------|---------------|
|--13----13~---13-15-16----------13-15-16------16-15~--|---------------|
|------------------------------------------------------|--9h11--12~----|
|------------------------------------------------------|---------------|
|------------------------------------------------------|---------------|
|------------------------------------------------------|---------------|

3:13
|---------------------|--------------------------------------|----------|
|-------------11------|--------------8-11---11-11-9-8-8--9-8-|--------8-|
|--9h10--12~-----12~--|--9h10--12~---------------------------|------5---|
|---------------------|--------------------------------------|--5-8-----|
|---------------------|--------------------------------------|----------|
|---------------------|--------------------------------------|----------|

3:27
|-8-6-5------------------------6-----6----------------10-----11p9p8------------|
|-------8-6-5---5-5-6-8--6-------8-------8h10h11p10p8----8----------11p9p8-8---|
|--------------------------5-------------------------------------------------10|
|------------------------------------------------------------------------------|
|------------------------------------------------------------------------------|
|------------------------------------------------------------------------------|

3:38
|--------------|--------------------------|------------------------|
|--6h8h9p8p6-8-|------------------------8-|--13-14-15--14-14-15-16-|
|--------------|---7-7/8---7-7/8---7h8----|--10-11-12--11-11-12-13-|
|--------------|--------------------------|------------------------|
|--------------|--------------------------|------------------------|
|--------------|--------------------------|------------------------|

3:55
|-------------------------------------------------------|---------------------|
|-16-16-18-16---15-15-16-15---13-13-15-13---13-15-16-15-|--13~---13-15-16-----|
|-------------------------------------------------------|-----------------15~-|
|-------------------------------------------------------|---------------------|
|-------------------------------------------------------|---------------------|
|-------------------------------------------------------|---------------------|

4:15
|------------------------------------------|-----13--15---11-11-10-10--18--15-15
|-13-15-16---------------------------------|-13~-------------------------------
|----------13~----13-13p12--12\10--10\8--7-|-----------------------------------
|------------------------------------------|-----------------------------------
|------------------------------------------|-----------------------------------
|------------------------------------------|-----------------------------------

4:33
|--13-10-10---11-13-|---------------15--------17-----------------15--------|
|-------------------|--11-11-13-13-----13-13-----13-13--11-13-13----13-13--|
|-------------------|------------------------------------------------------|
|-------------------|------------------------------------------------------|
|-------------------|------------------------------------------------------|
|-------------------|------------------------------------------------------|

4:44
|-15-----------------15-------15-----------------|---------------------------|
|----13-13--11-13-13----13-13----13-13--11-13-13-|----------------15----18-15|
|------------------------------------------------|----8-10/12--12----15------|
|------------------------------------------------|-10------------------------|
|------------------------------------------------|---------------------------|
|------------------------------------------------|---------------------------|

4:56
|-----15------18-15--------------------------------------------15-------------
|--15----16------------15b16--13-15b16-15b16-13---13-15b16--13----13--15b16-13
|-----------------------------------------------------------------------------
|-----------------------------------------------------------------------------
|-----------------------------------------------------------------------------
|-----------------------------------------------------------------------------

5:12
|----------------------------------12/13--13p11p10------------------|
|--13p12--13---11-13p12h13p12h13------------------11----------------|
|-----------------------------------------------------10b11-(10b11)-|
|-------------------------------------------------------------------|
|-------------------------------------------------------------------|
|-------------------------------------------------------------------|

5:18
|--------------------------------------------------------------------|
|--------------------12b13~---15-16-13---16-16/18-18---18b19-16-15---|
|--8h10h11p10p8-8----------------------------------------------------|
|--------------------------------------------------------------------|
|--------------------------------------------------------------------|
|--------------------------------------------------------------------|

5:30
|----------------------------------------------------|----------------------|
|------------------11-11b13--------------------------|-------------------15-|
|---------10-12-10--------------------9h11--9----9-9-|------------13h15-----|
|--10h13-----------------------10h13----------13-----|--13-13h15------------|
|----------------------------------------------------|----------------------|
|----------------------------------------------------|----------------------|

5:41
|------------13--|----------------------------------------------------------|
|--16-13---------|--16-16-15-15-------16-16-15-15---------15-15-12-12-------|
|----------------|--------------12-12-------------12-12---------------10-10-|
|----------------|----------------------------------------------------------|
|----------------|----------------------------------------------------------|
|----------------|----------------------------------------------------------|

5:52
|--------------------------------------------------------------------------|
|--15-15-12-12---------13-13-11-11-----13-13-11-11-------11-11-11-11-11-11-|
|--------------10-10---------------9-9-------------9-9---------------------|
|--------------------------------------------------------------------------|
|--------------------------------------------------------------------------|
|--------------------------------------------------------------------------|

6:01
|-------------------------------------------------------------|
|--16-15-----16-15---15-13-------13-11-----11-----16-15-------|
|--------15----------------12----------9----------------12----|
|-------------------------------------------------------------|
|-------------------------------------------------------------|
|-------------------------------------------------------------|

6:22
|--------------------------------15----12-----------------------------|
|--------------------------12-------13----12--13----------------------|
|--------------10----12-------12-----------------12-12----10----------|
|--------10-------10----12-----------------------------12----10-10----|
|--10-------10-----------------------------------------------------10-|
|-----10--------------------------------------------------------------|


| b  bend
| () bend note to
| /  slide up
| \  slide down
| h  hammer-on
| p  pull-off
| ~  vibrato

            
            
Suggest correction
Creating personal tab
Creating personal tab
You can edit any tab online and save it as your Personal.

You can edit, replace or remove any tab part or add personal notes – all changes will be seen only by you.

Personal tabs can be accessed anytime from any device, even offline.
Learn more »
comments
print report bad tab
6 comments total. Showing first comments.
0 reply
SadulisteN 72 Jul 13, 2009 09:02 AM

James Sicardi, these tabs you've put up lately are AMAZING! Thank you thank you!!

0 reply
Zarater 10 Jul 13, 2009 11:47 AM

Wow this tab is great.

+2 reply
nati505 10 Jan 27, 2011 06:34 AM

generally good job man. but you have some mistakes . i can show you if you want.

guest
You may want to rate the tab now too:
select rating
Wanna post a correction for this tab? Suggest correction