Oops, an error
Loading. Please wait.

Electric Tears tab

version 1
version 1

Whole song

Interactive

23,796 views 9 this week
6 commentsread comments
1 2 3 4 5
x 12
add to favorites
×
Save as Personal and add changes to this tab that will be seen only by you. Learn more ›
×
You can save this tab as Personal to edit and correct it or add notes. All changes will be seen only by you. Learn more »
launch autoscroll
font size
0
reset
how to read this tab
guitar tuner
edit
Autoscroll
slow
fast
+/-
esc
set tempo
stop
Electric Tears
--------------
By: Buckethead
Tabbed by: Mike Medrek

Tuning: Standard

Note:
This is a slow song just consisting of: Pattern, pause, pattern, pause, etc
============================================

-------------14-18-|
-------------------|
-------13-15-------|   X 4
----13-------------|
-11----------------|

-------------------|
-------------------|
----------15-------|
-------16----------|
-14-16-------------|
-------------------|

=============================================
Play twice:

-------------14-18-|
-------------------|
-------13-15-------|   X 2
----13-------------|
-11----------------|

-------------------|
-------------------|
----------15-------|
-------16----------|
-14-16-------------|
-------------------|

============================================

-------------14-18-|
-------------------|
-------13-15-------|   X 2
----13-------------|
-11----------------|

============================================
Play 3x:

-------------------|
-------------------|
-15----------------|
-------------------|
----13-------------|
-11----14-13-------|

-------------------|
-------------------|
-15----------------|
----------------13-|
---13--------------|
-9----14-13--------|

-------------------|
-------------------|
-10----------------|
----11-------------|
-------9-----------|
-7-------(9)-------| (3rd time only)

============================================

-------------------|
-------------------|
-15----------------|
-------------------|   X 2
-------------------|
-11-14-13----------|

-------------------|
-11----------------|
-------------------|
-----8-------------|
---9---8-----------|
-9-----------------|

-------------------|
-------------------|
-10----------------|
----11-------------|
-------9-8---------|
-------------------|

-------------------|
-------------------|
-------------------|
-------11----------|
---8-9-------------|
-7-----------------|

-------------------|
-------------------|
-15----------------|
-------------------|
----13-------------|
-11----14-13--(13)-|

-------------------|
-------------------|
-15----------------|
-------------------|
----13-------------|
-9-----14-13-------|


-------------------|
-------------------|
-10----------------|
----11-------------|
-------9-----------|
-------------------|

-------------------|
-------------------|
-15----------------|
-------------------|
-------------------|
-11-14-13----------|

-------------------|
-------------------|
-15----------------|
-------------------|
----13-------------|
-9-----14-13-------|

-------------------|
-------------------|
-10----------------|
----11-------------|
-------9-----------|
-------------------|

------------------- ----------|
------------------- ----------|
------------------- ----------|
-------------11-15- ----------|
----13------------- ------13--|
-11----13-14------- ---11-----|

-------------------|
-------------------|
----------18-------|
----15-16----------|
-14----------------|
-----------------9-|

-------------------|
-------------------|
----------18-------|
----15-16----------|
-14----------------|
-------------------|

-------------------|
-------------------|
-18----------------|  X 2
----16-15----------|
----------14-------|
-------------------|

-------------------|
-------------------|
-18----------------|
----16-15----------|
----------13-------|
-------------------|

-------------------|
-------6-8---------|
-------------------|
-------------------|
---6-9-------------|
-7-----------------|

Rake:
-------------------|
-------------------|
-8-----------------|
-x-----------------|
-9-----------------|
-7-----------------|

            
            
Suggest correction
Creating personal tab
Creating personal tab
You can edit any tab online and save it as your Personal.

You can edit, replace or remove any tab part or add personal notes – all changes will be seen only by you.

Personal tabs can be accessed anytime from any device, even offline.
Learn more »
comments
print report bad tab
6 comments total. Showing first comments.
0 reply
BAWLS 10 Feb 24, 2007 06:43 PM

thanks a lot for this.

0 reply
Kiotaka 40 Apr 02, 2007 11:10 AM

nicely done thanks! I just wish someone would post more tabs from the Electric Tears Album. It's such a good album!

+1 reply
Horrified 10 Apr 22, 2008 09:39 AM

I think
------2-------
-----3--------
----0---------
---0----------
--4-----------
-2------------
for the main riff sounds much better.

guest
Wanna post a correction for this tab? Suggest correction