Oops, an error
Loading. Please wait.

Flea Market tab

version 1
version 1

Whole song

82 views 1 this week
3 commentsread comments
1 2 3 4 5
1 last vote to show rating
add to favorites
×
Save as Personal and add changes to this tab that will be seen only by you. Learn more ›
×
You can save this tab as Personal to edit and correct it or add notes. All changes will be seen only by you. Learn more »
launch autoscroll
font size
0
reset
how to read this tab
guitar tuner
edit
Autoscroll
slow
fast
+/-
esc
set tempo
stop
Author
Difficulty
'FLEA MARKET'
by Buckethead


tabbed by:    DropDeee
tuning:       Standard
effect:       Clean
video:        https://www.youtube.com/watch?v=gPZ_g7tz2OQ
album:        Pike #10 - 'The Silent Picture Book'




[Intro] (Rhythm)

  
       B          E         F#
e|--(7)-----|--(7)-----|-(9)--(9)--|
B|--(7)-----|--(9)-----|-(11)-(11)-|
G|---8------|---9------|--11---11--| x 3    Play twice then go into lead
D|---9------|---9------|--11---11--|        or continue with rhythm then
A|---9------|---7------|--9----9---|        join lead from last tab bar...
E|---7------|---7------|--9----9---|

       E          F#   
e|--(7)-----|--(9)--(9)---|
B|--(9)-----|--(11)-(11)--|
G|---9------|---11---11---| x 2
D|---9------|---11---11---|
A|---7------|---9----9----|
E|---7------|---9----9----|


  [Intro] (LEAD)

e|------------------------------|--11h12--11---------11----------------|-------------------------------|
B|----------------------12------|-------------14-------------12--12p11-|-12----------------------------|
G|--11--11--11--11h13-----------|--------------------------------------|------11---9-8------8/9--11----|
D|------------------------------|--------------------------------------|-------------------------------|
A|------------------------------|--------------------------------------|-------------------------------|
E|------------------------------|--------------------------------------|-------------------------------|



 [Verse]

  00:26
e|--------12----11------------------|----------------------------------|
B|--12h14-----------12--------12----|----------------------------------|
G|----------------------11h13-------|--------11/13---------------------|
D|----------------------------------|--------11/13--11-----------------|
A|----------------------------------|----------------------------------|
E|----------------------------------|----------------------------------|

e|----------------------------------------------------|
B|----------------------------------------------------|
G|----------------------------------------------------|
D|--9---------11/13--14-g14/16--14-13--14--13h14p13---|
A|----------------------------------------------------|
E|----------------------------------------------------|

e|----------------------------------------------------|
B|----------------------------------------------------|
G|----------------------------------------------------|
D|--11p9-----------9----------------------------------|
A|------------9h11---11\9----------------(9-9/11)-----|
E|------------------------11\9-7----------------------|



  
  00:52
e|---------------------------------------|--------------------------------------|
B|--12-g12h14------12p11h12--------------|--------------------------------------|
G|--------------------------11---13p11---|--------------------------------------|
D|-------------------------------------14|-13----14p13-11---13p11----(11)-13h14-|
A|---------------------------------------|--------------------------------------|
E|---------------------------------------|--------------------------------------|

e|----------------------------14-|-14--12-12-12-11--9-9/11---|
B|-------------12-12--14/16------|---------------------------|
G|--11---13----------------------|---------------------------|
D|-------------------------------|---------------------------|
A|-------------------------------|---------------------------|
E|-------------------------------|---------------------------|

e|--g14h16-p14-------------------|--g14h16--14-------------------|
B|-------------------g14h16-p14--|-------------------g14h16-p14--|
G|-------------------------------|-------------------------------|
D|-------------------------------|-------------------------------|
A|-------------------------------|-------------------------------|
E|-------------------------------|-------------------------------|

                           barre  7th fret
e|---------------------------9-7-|-------------------------------|
B|-------12----------------------|-------------------------------|
G|-------------------------9-----|-8---9p8-------------------8/9-|
D|-------------------------------|-------------------------------|
A|-------------------------------|-------------------------------|
E|-------------------------------|-------------------------------|



  01:28
e|----------------------|---------------------------|
B|----------------------|-------------12\11------11-|
G|-11---------------8/9-|-11----------------13------|
D|---------------9------|---------------------------|
A|----------------------|---------------------------|
E|----------------------|---------------------------|

e|--------------g10h11--12-11--9--|----11------------|
B|--------------------------------|---------12--12~~-|
G|-11-----------------------------|------------------|
D|--------------------------------|------------------|
A|--------------------------------|------------------|
E|--------------------------------|------------------|



  01:45
e|--------------------------------------|------------------------------------------|
B|-------14-14--14----------14-12-12-11-|12----------------------------------------|
G|---11-----------------11--------------|---11-11~~--------------------------------|
D|--------------------------------------|------------14--13-13-h14-11----11h13p11--|
A|--------------------------------------|------------------------------------------|
E|--------------------------------------|------------------------------------------|

e|-----------------------------|--------------------------------|
B|-----------------------------|--------------------------------|
G|-----------------------------|--------------------------------|
D|--9--\7----------------------|--------------------------------|
A|--------9--------9/11\9------|-------------------------13/14--|
E|-------------------------11--|-------------------11h14--------|

                   playsoftly
e|---------------------------------|----------------------------|
B|-----------------(12---------14--|--16---14p12--12------------|
G|------------11--------11-11)-----|----------------------------|
D|-(13h14p13)----------------------|----------------------------|
A|---------------------------------|----------------------------|
E|---------------------------------|----------------------------|



  02:11
e|------------------------------------|-11---12-11--12---14~~-g14p12-11---------------|
B|--12-11--12--------------------12-14|----------------------------------12-----------|
G|--------------11--11h13~----13------|--------------------------------------11h13p11-|
D|------------------------------------|-----------------------------------------------|
A|------------------------------------|-----------------------------------------------|
E|------------------------------------|-----------------------------------------------|

e|------------------------------------|-------------------------|
B|------------------------------------|-------------------------|
G|------------------------------------|-----8h9--11p9-8---------|
D|---------------14p13-------11h13p11-|--9----------------------|
A|------------------------------------|-------------------------|
E|------------------------------------|-------------------------|



  02:29
e|------------------------16-16--14-14---|-----------------------------------|
B|------16-16--14-14---------------------|------16-16h17-16-14--14h16-14-----|
G|---------------------------------------|-----------------------------------|
D|---------------------------------------|-----------------------------------|
A|---------------------------------------|-----------------------------------|
E|---------------------------------------|-----------------------------------|

e|------18-18h19-18-16--18----14---|--12p11-11---9---7-----------------------|
B|---------------------------------|-----------------------------------------|
G|---------------------------------|-----------------------------------------|
D|---------------------------------|-----------------------------------------|
A|---------------------------------|-----------------------------------------|
E|---------------------------------|-----------------------------------------|



  02:46
e|----------------------------------|----------------------------------|
B|-----------7-----9h11-12-11--9----|----------------------------------|
G|-------8h9---------------------11-|------8-9-11----11/13\11-9---8----|
D|--9h11----------------------------|-9-11--------------------------11-|
A|----------------------------------|----------------------------------|
E|----------------------------------|----------------------------------|

e|--------------------------|-------------------------------|
B|------------------7-------|-------------------------------|
G|--------------8h9---9\8---|-------------------------------|
D|--9------9h11-----------9-|-9-----------------------------|
A|--------------------------|-------------------------------|
E|--------------------------|-------------------------------|



  03:03
e|--------------------------|-------------------------------|
B|--12-------11-------------|-------------------------------|
G|----------------11------11fbr------9\8--------------------|
D|--------------------------|------------11-11---9-9--------|
A|--------------------------|-------------------------------|
E|--------------------------|-------------------------------|

e|----------------------------------------------------------|
B|----------------------------------------------------------|
G|----------9-8-------------9-8-----------------------------|
D|------6h9---------------9-----9---------------------------|
A|-------------------9h11---------9-------------------------|
E|------------------------------------9h11--p9\7------------|





************************************

| b    Bend
| br   Bend release
| fb   Full bend
| fbr  Full bend & release
| /    Slide up
| ~    Vibrato
| h    Hammer-on
| p    Pull-off
| g    Grace note
| \    Slide down
| (n)  Ghost note


************************************

            
            
Suggest correction
Creating personal tab
Creating personal tab
You can edit any tab online and save it as your Personal.

You can edit, replace or remove any tab part or add personal notes – all changes will be seen only by you.

Personal tabs can be accessed anytime from any device, even offline.
Learn more »
Give kudos to tab author, rate the tab!
1 2 3 4 5
comments
print report bad tab
3 comments total.
0 reply
ajanddino 972 Dec 10, 2016 03:21 PM

Great tab.

0 reply
DropDeee 4,141 Dec 10, 2016 03:36 PM

As always, thanks Ajan :) Have a great weekend!

0 reply
ajanddino 972 Dec 10, 2016 08:20 PM

i've had just got pike 10 a week ago and i was very happy to see this tab thanks.

guest
You may want to rate the tab now too:
select rating
Wanna post a correction for this tab? Suggest correction