Oops, an error
Loading. Please wait.

Four Rivers tab

version 1
version 1

Whole song

Interactive

2,113 views 3 this week
2 commentsread comments
1 2 3 4 5
2 more votes to show rating
add to favorites
×
Save as Personal and add changes to this tab that will be seen only by you. Learn more ›
×
You can save this tab as Personal to edit and correct it or add notes. All changes will be seen only by you. Learn more »
launch autoscroll
font size
0
reset
how to read this tab
guitar tuner
edit
Autoscroll
slow
fast
+/-
esc
set tempo
stop
Author
Difficulty
Do this 2 times.
|-----------------------8----------8--|
|--8~~8----------6--8~~---8-----8-----|
|--8~~8---7--7-8----8~~-----8---------|
|-------------------------------------|
|-------------------------------------|
|-------------------------------------|
 

Then the lead part.
|---------------------------------|
|---------------------------------|
|--10/12~~/17--15---10--10/12-----|
|---------------------------------|
|---------------------------------|
|---------------------------------|


Then this 3 times. I'm not sure if this is right.
|---------------------------------------|
|---------------------------------------|
|-------0---------0-----------------0---|
|---5-----5---5-----5---5---5---5-----5-|
|-3---3-----3---3-----3---3---3---3-----|
|---------------------------------------|


Then this like 16 times.
|--8-------8-------8-----|
|----8---8---8---8---8---|
|------8-------8-------8-|
|------------------------|
|------------------------|
|------------------------|

Then this again.
|-----------------------8----------8--|
|--8~~8----------6--8~~---8-----8-----|
|--8~~8---7--7-8----8~~-----8---------|
|-------------------------------------|
|-------------------------------------|
|-------------------------------------|


Then the lead. Around 1:25
|----------------------------------|
|----------------------------------|
|--3/5---7/8----8/10--8--8h9p8--5--|
|----------------------------------|
|----------------------------------|
|----------------------------------|

Around 1:45
|-----------------------------------------------------------|
|-----------------------------------------------------------|
|--8/10--8--7--5--3-----------10----7/8---8/10---8\7---5~~~-|
|--------------------3/5------------------------------------|
|-----------------------------------------------------------|
|-----------------------------------------------------------|


Then.
|--8-------8-------8-----|
|----8---8---8---8---8---|
|------8-------8-------8-|
|------------------------|
|------------------------|
|------------------------|

Until end
|-----------------------8----------8--|
|--8~~8----------6--8~~---8-----8-----|
|--8~~8---7--7-8----8~~-----8---------|
|-------------------------------------|
|-------------------------------------|
|-------------------------------------|

            
            
Suggest correction
Creating personal tab
Creating personal tab
You can edit any tab online and save it as your Personal.

You can edit, replace or remove any tab part or add personal notes – all changes will be seen only by you.

Personal tabs can be accessed anytime from any device, even offline.
Learn more »
Give kudos to tab author, rate the tab!
1 2 3 4 5
comments
print report bad tab
2 comments total.
0 reply
Meatallica 50 Dec 09, 2009 10:45 AM

the first chord should have a C on top. So it would be:

e|----------------------------------------|
b|--8--8----------6--8------8-------------|
g|--8--8--7--7-8-----8--------8-------8---|
d|--10-10------------10--10----10--10--10-|
a|-------------------------------10-------|

and the way the lead would probably be played is:

e|------6/8\6-----|
b|--6/8-------6/8-|

and I'm not too sure on the next part but it's somewhere along the lines of:

e|------------------|
b|----------2-------|
g|-----0----------0-|
d|---5---5----5-----|
a|-3------------3---|
(^with variations^)

0 reply
Meatallica 50 Dec 09, 2009 10:48 AM

*and I accidentally left out one not on the lead part which would be the 6th fret B string before the last slide...

guest
You may want to rate the tab now too:
select rating
Wanna post a correction for this tab? Suggest correction