Oops, an error
Loading. Please wait.

Frozen Brains Tell No Tales tab

version 2
version 2

Whole song

Interactive

2,357 views 1 this week
4 commentsread comments
1 2 3 4 5
2 more votes to show rating
add to favorites
×
Save as Personal and add changes to this tab that will be seen only by you. Learn more ›
×
You can save this tab as Personal to edit and correct it or add notes. All changes will be seen only by you. Learn more »
launch autoscroll
font size
0
reset
how to read this tab
guitar tuner
edit
Autoscroll
slow
fast
+/-
esc
set tempo
stop
Author
Difficulty
Buckethead
Tabbed by HardRocker328
"Frozen Brains Tell No Tales"
Tuning:
Cb|
Gb|
E |
B |
Fb|
B |

   Intro (Clean) w/ Delay
Cb|------------------------|
Gb|------------------------|
E |------------------------| 4x
B |------------------------|
Fb|-12-13------12-13-------|
B |0-----15-0-0-----15-0-12|

   1st Kick w/ metal
Cb|------------------------|
Gb|------------------------|
E |------------------------| 4x
B |------------------------|
Fb|---0-3-0-0---0-1-0------|
B |0-3-3---3-0-3-3---3-0---|

   Repeat Intro
Cb|------------------------|
Gb|------------------------|
E |------------------------| 2x
B |------------------------|
Fb|-12-13------12-13-------|
B |0-----15-0-0-----15-0-12|

   1st kick w/ Riff 1 at end
Cb|------------------------|
Gb|------------------------|
E |------------------------| 4x
B |------------------------|
Fb|---0-3-0-0---0-1-0------|
B |0-3-3---3-0-3-3---3-0---|

   Riff 1
Cb|------------------------|
Gb|------------------------|
E |------------------------|
B |------------------------|
Fb|---0----------0---------|
B |0-3-3/6~~~-0-3-3/6~~~---|

   2nd Kick w/ metal
Cb|------------------------|
Gb|------------------------|
E |------------------------| 4x
B |------------------------|
Fb|4/5-1~/3~-5-1~~---------|
B |---0-~~~---0------------|

   1st Kick w/ metal
Cb|------------------------|
Gb|------------------------|
E |------------------------| 2x
B |------------------------|
Fb|---0-3-0-0---0-1-0------|
B |0-3-3---3-0-3-3---3-0---|

   Intro (Clean) w/ Delay
Cb|------------------------|
Gb|------------------------|
E |------------------------| 2x
B |------------------------|
Fb|-12-13------12-13-------|
B |0-----15-0-0-----15-0-12|

   1st kick w/ Riff 1 at end
Cb|------------------------|
Gb|------------------------|
E |------------------------| 4x
B |------------------------|
Fb|---0-3-0-0---0-1-0------|
B |0-3-3---3-0-3-3---3-0---|

2nd Kick w/ metal
Cb|------------------------|
Gb|------------------------|
E |------------------------| 6x
B |------------------------|
Fb|4/5-1~/3~-5-1~~---------|
B |---0-~~~---0------------|

   3rd Kick w/ metal
Cb|-------------------------------|
Gb|-------------------------------|
E |-------------------------------| 4x
B |-------------------------------|   “Your body will be removed…”
Fb|-----5~------7~-----3~-----1-0-|
B |0h5/8--0h7/10--0h5/7--0h3/5---3|

1st Kick w/ metal
Cb|------------------------|
Gb|------------------------|
E |------------------------| 4x
B |------------------------|
Fb|---0-3-0-0---0-1-0------|
B |0-3-3---3-0-3-3---3-0---|

   Clean w/ Delay
Cb|------------------------|
Gb|------------------------|
E |------------------------| 1x
B |------------------------|
Fb|-12-13------------------|
B |0-----15-0-0------------|

2nd Kick w/ metal 8x (During Solo)

Fade Out

Suggest correction
Creating personal tab
Creating personal tab
You can edit any tab online and save it as your Personal.

You can edit, replace or remove any tab part or add personal notes – all changes will be seen only by you.

Personal tabs can be accessed anytime from any device, even offline.
Learn more »
Give kudos to tab author, rate the tab!
1 2 3 4 5
comments
print report bad tab
4 comments total. Showing first comments.
-1 reply
Td_Nights 176 Jun 02, 2008 03:34 AM

Haha.

The song is (from what I've gathered) 1/2 step down, and if not that, E standard. It's just the bass makes it sound so low. Live he's played it right before/after other songs in those tunings.

This is also what's on bingeandgrab.com, so have fun explaining that.

0 reply
Cannibal Koala 20 Jul 26, 2010 11:28 AM

This is a very good tab. 5* Here's a gory head stump.

To Td_Nights: He does it in the Studio in drop B, and live in Eb. It would be a pain for Mr. Head tune his guitar for 5 minutes and then play the song and have to tune it back to Eb, being the master Mr. Head is, he transcribed it in Eb.
But as the thing for copying, dude, give credit to the original tabber. Just because you want everybody to think you're a good tabber, don't be an ass and just tab your own version and not steal someone elses. I'll be taking back that stump now. >:(

0 reply
Cannibal Koala 20 Jul 26, 2010 11:42 AM

After Reviewing the Binge n' Grab Tab, The dude on BnG most likely stole this tab from this guy, becuz of the guy not knowing the tuning of the tab. Here's your Stump back. :D

guest
You may want to rate the tab now too:
select rating
Wanna post a correction for this tab? Suggest correction