Oops, an error
Loading. Please wait.

Ghosts Upstairs Tab

2,883 views 1 this week
4 commentsread comments
1 2 3 4 5
x 3
add to favorites
launch autoscroll
font size
0
reset
how to read this tab
guitar tuner
Autoscroll
slow
fast
+/-
esc
set tempo
stop
Help us to improve Ultimate-Guitar.com Take our survey!
×
Author
Difficulty
Tuning
novice
D# G# C# F# A# D#
                                      ¨Buckethead¨

                                    _Ghosts Upstairs_


Album: 'Acoustic Shards'
Tuning: Half Step Down

my cover to give you an idea of how it sounds
http://www.youtube.com/watch?v=TqDhbxgaiJg
(what i tabbed isn't 100% accurate)

A. intro (corrected thx to ledzeplin and changed position)
----------------------------------------------------------------------|
----------------------------------------------------------------------|
----------0-----------------------------0-----------------------------|
-------4---------0-------0------------4-----------0-------0-----------|
----5----------4---4---4---4---4----5-----------2---2---4---4---4-----|
--7----------5-------5-------5----7-----------3-------5-------5-------|

                                   you can also strum these parts
-----------------------------------------------------------------|
-----------------------------------------------------------------|
-------6---------------------------------------------------------|
-----4---------0-------0-----------0-------0--------0-------0~---|
---5---------4---4---4---4---4---2---2---2---2----4---4---4------|
-7---------5-------5-------5---3-------3--------5-------5--------|

repeat intro with palm mute and slight variation

B. at 0:21
repeat 4x

---------------------------|
--3---------------3--------|
--2-----2-------2---2------|
--4--4----4--5-------------|
--2------------------------|
---------------------------|

C. at 0.30
strum these chords

--0----------------|
--3----------------|
--4---2---3/-------|
--4---2---5/-------|
--2---0---5/-------|
----------3/-------|

slide the last chord up and make weird noises ^^

PLEASE RATE AND COMMENT THIS TAB!!!!
Suggest correction
Give kudos to tab author, rate the tab!
1 2 3 4 5
comments
print report bad tab
4 comments total. Showing first comments.
0 reply
ledzep4life 10 Sep 30, 2009 12:57 PM

hey buddy, thanks for going to the effort of tabbing this. otherwise i wouldn't even be trying to see the errors. From what i can tell, it should go like this.

First part is palm muted

A. intro

--------------------------------------------------------------------|
---------------------------------------------------------------------|
--------0-------------------------------0----------------------------|
----0-4--------0-------0------------0-4-------0---------0-------0----|
--2----------4---4---4---4---4----2---------2---2-----4---4---4---4--|
-----------5-------5-------5--------------3-------3s5-------5-------5|

0 reply
ledzep4life 10 Sep 30, 2009 01:01 PM

sorry that last 0 4 5 isnt sposed to be there.

It's palm muted for the opening 4 notes.

0 reply
toine 1,219 Sep 30, 2009 01:03 PM

thx for the correction. that 1 note is wrong, i hear it now :)

guest
You may want to rate the tab now too:
select rating
Wanna post a correction for this tab? Suggest correction